  0
SECTION
  2
HEADER
  9
$ACADVER
  1
AC1032
  9
$ACADMAINTVER
 90
       55
  9
$DWGCODEPAGE
  3
ANSI_1252
  9
$LASTSAVEDBY
  1
jschuber
  9
$REQUIREDVERSIONS
160
                 0
  9
$INSBASE
 10
0.0
 20
0.0
 30
0.0
  9
$EXTMIN
 10
4.0
 20
4.0
 30
0.0
  9
$EXTMAX
 10
132.0
 20
84.0
 30
0.0
  9
$LIMMIN
 10
0.0
 20
0.0
  9
$LIMMAX
 10
136.0
 20
88.0
  9
$ORTHOMODE
 70
     0
  9
$REGENMODE
 70
     1
  9
$FILLMODE
 70
     1
  9
$QTEXTMODE
 70
     0
  9
$MIRRTEXT
 70
     1
  9
$LTSCALE
 40
6.0
  9
$ATTMODE
 70
     1
  9
$TEXTSIZE
 40
1.0
  9
$TRACEWID
 40
0.05
  9
$TEXTSTYLE
  7
MASTER
  9
$CLAYER
  8
NOTES
  9
$CELTYPE
  6
BYLAYER
  9
$CECOLOR
 62
   256
  9
$CELTSCALE
 40
1.0
  9
$DISPSILH
 70
     0
  9
$DIMSCALE
 40
8.0
  9
$DIMASZ
 40
0.18
  9
$DIMEXO
 40
0.06
  9
$DIMDLI
 40
0.38
  9
$DIMRND
 40
0.0
  9
$DIMDLE
 40
0.0
  9
$DIMEXE
 40
0.1
  9
$DIMTP
 40
0.0
  9
$DIMTM
 40
0.0
  9
$DIMTXT
 40
0.125
  9
$DIMCEN
 40
0.09
  9
$DIMTSZ
 40
0.0
  9
$DIMTOL
 70
     0
  9
$DIMLIM
 70
     0
  9
$DIMTIH
 70
     1
  9
$DIMTOH
 70
     1
  9
$DIMSE1
 70
     0
  9
$DIMSE2
 70
     0
  9
$DIMTAD
 70
     0
  9
$DIMZIN
 70
     0
  9
$DIMBLK
  1

  9
$DIMASO
 70
     1
  9
$DIMSHO
 70
     1
  9
$DIMPOST
  1

  9
$DIMAPOST
  1
mm
  9
$DIMALT
 70
     0
  9
$DIMALTD
 70
     2
  9
$DIMALTF
 40
25.4
  9
$DIMLFAC
 40
1.0
  9
$DIMTOFL
 70
     0
  9
$DIMTVP
 40
0.0
  9
$DIMTIX
 70
     0
  9
$DIMSOXD
 70
     0
  9
$DIMSAH
 70
     0
  9
$DIMBLK1
  1

  9
$DIMBLK2
  1

  9
$DIMSTYLE
  2
ENGLISH
  9
$DIMCLRD
 70
     0
  9
$DIMCLRE
 70
     0
  9
$DIMCLRT
 70
     0
  9
$DIMTFAC
 40
1.0
  9
$DIMGAP
 40
0.09
  9
$DIMJUST
 70
     0
  9
$DIMSD1
 70
     0
  9
$DIMSD2
 70
     0
  9
$DIMTOLJ
 70
     1
  9
$DIMTZIN
 70
     0
  9
$DIMALTZ
 70
     0
  9
$DIMALTTZ
 70
     0
  9
$DIMUPT
 70
     1
  9
$DIMDEC
 70
     2
  9
$DIMTDEC
 70
     2
  9
$DIMALTU
 70
     2
  9
$DIMALTTD
 70
     2
  9
$DIMTXSTY
  7
STANDARD
  9
$DIMAUNIT
 70
     0
  9
$DIMADEC
 70
     0
  9
$DIMALTRND
 40
0.0
  9
$DIMAZIN
 70
     0
  9
$DIMDSEP
 70
    46
  9
$DIMATFIT
 70
     3
  9
$DIMFRAC
 70
     0
  9
$DIMLDRBLK
  1

  9
$DIMLUNIT
 70
     2
  9
$DIMLWD
 70
    -2
  9
$DIMLWE
 70
    -2
  9
$DIMTMOVE
 70
     0
  9
$DIMFXL
 40
1.0
  9
$DIMFXLON
 70
     0
  9
$DIMJOGANG
 40
0.7853981633974483
  9
$DIMTFILL
 70
     0
  9
$DIMTFILLCLR
 70
     0
  9
$DIMARCSYM
 70
     0
  9
$DIMLTYPE
  6

  9
$DIMLTEX1
  6

  9
$DIMLTEX2
  6

  9
$DIMTXTDIRECTION
 70
     0
  9
$LUNITS
 70
     2
  9
$LUPREC
 70
     2
  9
$SKETCHINC
 40
0.1
  9
$FILLETRAD
 40
0.0
  9
$AUNITS
 70
     0
  9
$AUPREC
 70
     0
  9
$MENU
  1
.
  9
$ELEVATION
 40
0.0
  9
$PELEVATION
 40
0.0
  9
$THICKNESS
 40
0.0
  9
$LIMCHECK
 70
     0
  9
$CHAMFERA
 40
0.5
  9
$CHAMFERB
 40
0.5
  9
$CHAMFERC
 40
1.0
  9
$CHAMFERD
 40
0.0
  9
$SKPOLY
 70
     0
  9
$TDCREATE
 40
2451576.485150463
  9
$TDUCREATE
 40
2451576.735156482
  9
$TDUPDATE
 40
2458768.632337963
  9
$TDUUPDATE
 40
2458768.840671296
  9
$TDINDWG
 40
0.6687710185
  9
$TDUSRTIMER
 40
0.6687710185
  9
$USRTIMER
 70
     1
  9
$ANGBASE
 50
0.0
  9
$ANGDIR
 70
     0
  9
$PDMODE
 70
     0
  9
$PDSIZE
 40
0.0
  9
$PLINEWID
 40
0.0
  9
$SPLFRAME
 70
     0
  9
$SPLINETYPE
 70
     6
  9
$SPLINESEGS
 70
     8
  9
$HANDSEED
  5
E39
  9
$SURFTAB1
 70
     6
  9
$SURFTAB2
 70
     6
  9
$SURFTYPE
 70
     6
  9
$SURFU
 70
     6
  9
$SURFV
 70
     6
  9
$UCSBASE
  2

  9
$UCSNAME
  2

  9
$UCSORG
 10
0.0
 20
0.0
 30
0.0
  9
$UCSXDIR
 10
1.0
 20
0.0
 30
0.0
  9
$UCSYDIR
 10
0.0
 20
1.0
 30
0.0
  9
$UCSORTHOREF
  2

  9
$UCSORTHOVIEW
 70
     0
  9
$UCSORGTOP
 10
0.0
 20
0.0
 30
0.0
  9
$UCSORGBOTTOM
 10
0.0
 20
0.0
 30
0.0
  9
$UCSORGLEFT
 10
0.0
 20
0.0
 30
0.0
  9
$UCSORGRIGHT
 10
0.0
 20
0.0
 30
0.0
  9
$UCSORGFRONT
 10
0.0
 20
0.0
 30
0.0
  9
$UCSORGBACK
 10
0.0
 20
0.0
 30
0.0
  9
$PUCSBASE
  2

  9
$PUCSNAME
  2

  9
$PUCSORG
 10
0.0
 20
0.0
 30
0.0
  9
$PUCSXDIR
 10
1.0
 20
0.0
 30
0.0
  9
$PUCSYDIR
 10
0.0
 20
1.0
 30
0.0
  9
$PUCSORTHOREF
  2

  9
$PUCSORTHOVIEW
 70
     0
  9
$PUCSORGTOP
 10
0.0
 20
0.0
 30
0.0
  9
$PUCSORGBOTTOM
 10
0.0
 20
0.0
 30
0.0
  9
$PUCSORGLEFT
 10
0.0
 20
0.0
 30
0.0
  9
$PUCSORGRIGHT
 10
0.0
 20
0.0
 30
0.0
  9
$PUCSORGFRONT
 10
0.0
 20
0.0
 30
0.0
  9
$PUCSORGBACK
 10
0.0
 20
0.0
 30
0.0
  9
$USERI1
 70
     0
  9
$USERI2
 70
     0
  9
$USERI3
 70
     0
  9
$USERI4
 70
     0
  9
$USERI5
 70
     0
  9
$USERR1
 40
0.0
  9
$USERR2
 40
0.0
  9
$USERR3
 40
0.0
  9
$USERR4
 40
0.0
  9
$USERR5
 40
0.0
  9
$WORLDVIEW
 70
     1
  9
$SHADEDGE
 70
     3
  9
$SHADEDIF
 70
    70
  9
$TILEMODE
 70
     1
  9
$MAXACTVP
 70
    48
  9
$PINSBASE
 10
0.0
 20
0.0
 30
0.0
  9
$PLIMCHECK
 70
     0
  9
$PEXTMIN
 10
1.066666593701819
 20
0.80000000488101
 30
0.0
  9
$PEXTMAX
 10
9.599999343316385
 20
7.200000043929092
 30
0.0
  9
$PLIMMIN
 10
-0.1666668268639272
 20
-0.166666657905879
  9
$PLIMMAX
 10
10.83333293284018
 20
8.333333101798229
  9
$UNITMODE
 70
     0
  9
$VISRETAIN
 70
     1
  9
$PLINEGEN
 70
     0
  9
$PSLTSCALE
 70
     1
  9
$TREEDEPTH
 70
  3020
  9
$CMLSTYLE
  2
STANDARD
  9
$CMLJUST
 70
     0
  9
$CMLSCALE
 40
1.0
  9
$PROXYGRAPHICS
 70
     1
  9
$MEASUREMENT
 70
     0
  9
$CELWEIGHT
370
    -1
  9
$ENDCAPS
280
     0
  9
$JOINSTYLE
280
     0
  9
$LWDISPLAY
290
     0
  9
$INSUNITS
 70
     0
  9
$HYPERLINKBASE
  1

  9
$STYLESHEET
  1
monochrome.ctb
  9
$XEDIT
290
     1
  9
$CEPSNTYPE
380
     0
  9
$PSTYLEMODE
290
     1
  9
$FINGERPRINTGUID
  2
{31C67175-472A-4DDB-B45C-1F45A251D8E8}
  9
$VERSIONGUID
  2
{4084F53C-171A-9840-A18D-3641CD06EDC6}
  9
$EXTNAMES
290
     1
  9
$PSVPSCALE
 40
0.0
  9
$OLESTARTUP
290
     0
  9
$SORTENTS
280
   127
  9
$INDEXCTL
280
     0
  9
$HIDETEXT
280
     1
  9
$XCLIPFRAME
280
     2
  9
$HALOGAP
280
     0
  9
$OBSCOLOR
 70
   257
  9
$OBSLTYPE
280
     0
  9
$INTERSECTIONDISPLAY
280
     0
  9
$INTERSECTIONCOLOR
 70
   257
  9
$DIMASSOC
280
     1
  9
$PROJECTNAME
  1

  9
$CAMERADISPLAY
290
     0
  9
$LENSLENGTH
 40
50.0
  9
$CAMERAHEIGHT
 40
0.0
  9
$STEPSPERSEC
 40
2.0
  9
$STEPSIZE
 40
6.0
  9
$3DDWFPREC
 40
2.0
  9
$PSOLWIDTH
 40
0.25
  9
$PSOLHEIGHT
 40
4.0
  9
$LOFTANG1
 40
1.570796326794896
  9
$LOFTANG2
 40
1.570796326794896
  9
$LOFTMAG1
 40
0.0
  9
$LOFTMAG2
 40
0.0
  9
$LOFTPARAM
 70
     7
  9
$LOFTNORMALS
280
     1
  9
$LATITUDE
 40
37.795
  9
$LONGITUDE
 40
-122.394
  9
$NORTHDIRECTION
 40
0.0
  9
$TIMEZONE
 70
 -8000
  9
$LIGHTGLYPHDISPLAY
280
     1
  9
$TILEMODELIGHTSYNCH
280
     1
  9
$CMATERIAL
347
687
  9
$SOLIDHIST
280
     0
  9
$SHOWHIST
280
     1
  9
$DWFFRAME
280
     2
  9
$DGNFRAME
280
     0
  9
$REALWORLDSCALE
290
     1
  9
$INTERFERECOLOR
 62
     1
  9
$INTERFEREOBJVS
345
694
  9
$INTERFEREVPVS
346
C7F
  9
$CSHADOW
280
     0
  9
$SHADOWPLANELOCATION
 40
0.0
  0
ENDSEC
  0
SECTION
  2
CLASSES
  0
CLASS
  1
LWPOLYLINE
  2
AcDbPolyline
  3
ObjectDBX Classes
 90
        0
 91
        3
280
     0
281
     1
  0
CLASS
  1
DICTIONARYVAR
  2
AcDbDictionaryVar
  3
ObjectDBX Classes
 90
        0
 91
       13
280
     0
281
     0
  0
CLASS
  1
HATCH
  2
AcDbHatch
  3
ObjectDBX Classes
 90
        0
 91
        4
280
     0
281
     1
  0
CLASS
  1
ACDBDICTIONARYWDFLT
  2
AcDbDictionaryWithDefault
  3
ObjectDBX Classes
 90
        0
 91
        1
280
     0
281
     0
  0
CLASS
  1
ACDBPLACEHOLDER
  2
AcDbPlaceHolder
  3
ObjectDBX Classes
 90
        0
 91
        1
280
     0
281
     0
  0
CLASS
  1
LAYOUT
  2
AcDbLayout
  3
ObjectDBX Classes
 90
        0
 91
        2
280
     0
281
     0
  0
CLASS
  1
LONG_TRANSACTION
  2
AcDbLongTransaction
  3
ObjectDBX Classes
 90
        0
 91
        0
280
     0
281
     0
  0
CLASS
  1
LWPOLYLINE
  2
AcDbPolyline
  3
ObjectDBX Classes
 90
        0
 91
        3
280
     0
281
     1
  0
CLASS
  1
HATCH
  2
AcDbHatch
  3
ObjectDBX Classes
 90
        0
 91
        4
280
     0
281
     1
  0
CLASS
  1
XRECORD
  2
AcDbXrecord
  3
ObjectDBX Classes
 90
        0
 91
       14
280
     0
281
     0
  0
CLASS
  1
SORTENTSTABLE
  2
AcDbSortentsTable
  3
ObjectDBX Classes
 90
        0
 91
        1
280
     0
281
     0
  0
CLASS
  1
MATERIAL
  2
AcDbMaterial
  3
ObjectDBX Classes
 90
     1153
 91
        3
280
     0
281
     0
  0
CLASS
  1
VISUALSTYLE
  2
AcDbVisualStyle
  3
ObjectDBX Classes
 90
     4095
 91
       26
280
     0
281
     0
  0
CLASS
  1
TABLESTYLE
  2
AcDbTableStyle
  3
ObjectDBX Classes
 90
     4095
 91
        1
280
     0
281
     0
  0
CLASS
  1
SCALE
  2
AcDbScale
  3
ObjectDBX Classes
 90
     1153
 91
       17
280
     0
281
     0
  0
CLASS
  1
MLEADERSTYLE
  2
AcDbMLeaderStyle
  3
ACDB_MLEADERSTYLE_CLASS
 90
     4095
 91
        1
280
     0
281
     0
  0
CLASS
  1
EXACXREFPANELOBJECT
  2
ExAcXREFPanelObject
  3
EXAC_ESW
 90
     1025
 91
        1
280
     0
281
     0
  0
CLASS
  1
NPOCOLLECTION
  2
AcDbImpNonPersistentObjectsCollection
  3
ObjectDBX Classes
 90
     1153
 91
        1
280
     0
281
     0
  0
CLASS
  1
ACDBSECTIONVIEWSTYLE
  2
AcDbSectionViewStyle
  3
ObjectDBX Classes
 90
     1025
 91
        3
280
     0
281
     0
  0
CLASS
  1
ACDBDETAILVIEWSTYLE
  2
AcDbDetailViewStyle
  3
ObjectDBX Classes
 90
     1025
 91
        3
280
     0
281
     0
  0
CLASS
  1
ACME_DOCUMENT
  2
AcMeDbDoc
  3
AcMeServices
 90
     1024
 91
        0
280
     0
281
     0
  0
CLASS
  1
AMGSETTINGSOBJ
  2
AmgSettingsObj
  3
"AcadM|Product Description: AutoCAD Mechanical|Company: Autodesk, Inc."
 90
     1024
 91
        2
280
     0
281
     0
  0
CLASS
  1
ACMESCOPE
  2
AcMeScope
  3
AcMeServices
 90
     1024
 91
        1
280
     0
281
     0
  0
CLASS
  1
ACMECOMMANDHISTORY
  2
AcMeCommandHistory
  3
AcMeServices
 90
     1024
 91
        1
280
     0
281
     0
  0
CLASS
  1
ACIMSYSVARMAN
  2
AcImSysVarManager
  3
AcMeServices
 90
     1024
 91
        3
280
     0
281
     0
  0
CLASS
  1
ACIMINTSYSVAR
  2
AcImIntSysVar
  3
AcMeServices
 90
     1024
 91
        2
280
     0
281
     0
  0
CLASS
  1
ACMESTATEMGR
  2
AcMeStateMgr
  3
AcMeServices
 90
     1024
 91
        1
280
     0
281
     0
  0
CLASS
  1
ACDBENTITYCACHE
  2
AcMeEntityCache
  3
AcMeServices
 90
     1024
 91
        0
280
     0
281
     0
  0
CLASS
  1
ACGREFMASTER
  2
AcGrefMaster
  3
AcAttribServices
 90
     1024
 91
        1
280
     0
281
     0
  0
CLASS
  1
ACME_DATABASE
  2
AcMeDbDatabase
  3
AcMeServices
 90
     1024
 91
        0
280
     0
281
     0
  0
CLASS
  1
ACRFINSADJUSTERMGR
  2
AcRfInsAdjusterMgr
  3
AcMeServices
 90
     1024
 91
        0
280
     0
281
     0
  0
CLASS
  1
ACGREFACADMASTER
  2
AcGrefacadMaster
  3
AcGrefServices
 90
     1024
 91
        1
280
     0
281
     0
  0
CLASS
  1
AMDTMENUSTATEMGR
  2
AmdtMenuStateMgr
  3
McadcomServices
 90
     1024
 91
        0
280
     0
281
     0
  0
CLASS
  1
AMDTMCOMMENUSTATE
  2
AmdtMcomMenuState
  3
McadcomServices
 90
     1024
 91
        0
280
     0
281
     0
  0
CLASS
  1
AMIMASTER
  2
AmiMaster
  3
AmiServices
 90
     1024
 91
        1
280
     0
281
     0
  0
CLASS
  1
MAPIAMMOUDLE
  2
MApiAmModule
  3
MApiAmServices
 90
     1024
 91
        1
280
     0
281
     0
  0
CLASS
  1
ACIMSTRSYSVAR
  2
AcImStrSysVar
  3
AcMeServices
 90
     1024
 91
        5
280
     0
281
     0
  0
CLASS
  1
AMDTAMMENUSTATE
  2
AmdtAmMenuState
  3
DesignerAssemblies
 90
     1024
 91
        0
280
     0
281
     0
  0
CLASS
  1
ACAMPROJECT
  2
AcAmProject
  3
DesignerAssemblies
 90
     1024
 91
        1
280
     0
281
     0
  0
CLASS
  1
ACAMGRCOMPDEF
  2
AcAmGrCompDef
  3
DesignerAssemblies
 90
     1024
 91
        1
280
     0
281
     0
  0
CLASS
  1
ACAMCOMPDEF
  2
AcAmCompDef
  3
DesignerAssemblies
 90
     1024
 91
        1
280
     0
281
     0
  0
CLASS
  1
ACAMCOMPDEFMGR
  2
AcAmCompDefMgr
  3
DesignerAssemblies
 90
     1024
 91
        1
280
     0
281
     0
  0
CLASS
  1
AMCONTEXTMGR
  2
AcAmContextMgr
  3
DesignerAssemblies
 90
     1024
 91
        1
280
     0
281
     0
  0
CLASS
  1
ACAMCONTEXTMODELER
  2
AcAmContextModeler
  3
DesignerAssemblies
 90
     1024
 91
        1
280
     0
281
     0
  0
CLASS
  1
ACMDATADICTIONARY
  2
AcmDataDictionary
  3
"AcmSymBB|Product Description: AutoCAD Mechanical|Company: Autodesk, Inc."
 90
     1024
 91
        1
280
     0
281
     0
  0
CLASS
  1
ACAMGRCOMPDEFSET
  2
AcAmGrCompDefSet
  3
DesignerAssemblies
 90
     1024
 91
        0
280
     0
281
     0
  0
CLASS
  1
AMDTBROWSERDBTAB
  2
AmdtBrowserDbTab
  3
McadcomServices
 90
     1024
 91
        0
280
     0
281
     0
  0
CLASS
  1
CBROWSERAPPOBJECT
  2
CBrowserAppObject
  3
McadcomServices
 90
     1024
 91
        0
280
     0
281
     0
  0
CLASS
  1
DM_PLACEHOLDER
  2
AcDmSelsetPlaceholder
  3
McadcomServices
 90
     1024
 91
        0
280
     0
281
     0
  0
CLASS
  1
ACMSTANDARDANSI
  2
AcmStandardANSI
  3
"Amdt_StdImp|Product Description: AutoCAD Mechanical|Company: Autodesk, Inc."
 90
     1024
 91
        1
280
     0
281
     0
  0
CLASS
  1
ACMSURFSTANDARDANSI
  2
AcmSurfTextStdANSI
  3
"Amdt_StdImp|Product Description: AutoCAD Mechanical|Company: Autodesk, Inc."
 90
     1024
 91
        1
280
     0
281
     0
  0
CLASS
  1
ACMFCFSTANDARDANSI
  2
AcmFCFStdANSI
  3
"Amdt_StdImp|Product Description: AutoCAD Mechanical|Company: Autodesk, Inc."
 90
     1024
 91
        1
280
     0
281
     0
  0
CLASS
  1
ACMWELDSTANDARDANSI
  2
AcmWeldingStdANSI
  3
"Amdt_StdImp|Product Description: AutoCAD Mechanical|Company: Autodesk, Inc."
 90
     1024
 91
        1
280
     0
281
     0
  0
CLASS
  1
ACMIDSTANDARDANSI
  2
AcmIdStdANSI
  3
"Amdt_StdImp|Product Description: AutoCAD Mechanical|Company: Autodesk, Inc."
 90
     1024
 91
        1
280
     0
281
     0
  0
CLASS
  1
ACMDATUMSTANDARDANSI
  2
AcmDatumStdANSI
  3
"Amdt_StdImp|Product Description: AutoCAD Mechanical|Company: Autodesk, Inc."
 90
     1024
 91
        1
280
     0
281
     0
  0
CLASS
  1
ACMBOMSTANDARDANSI
  2
AcmBOMStdANSI
  3
"Amdt_StdImp|Product Description: AutoCAD Mechanical|Company: Autodesk, Inc."
 90
     1024
 91
        1
280
     0
281
     0
  0
CLASS
  1
ACMDETAILSTANDARDANSI
  2
AmdtDetailSymStdANSI
  3
"Amdt_StdImp|Product Description: AutoCAD Mechanical|Company: Autodesk, Inc."
 90
     1024
 91
        1
280
     0
281
     0
  0
CLASS
  1
ACMSECTIONSTANDARDANSI
  2
AmdtSectionSymStdANSI
  3
"Amdt_StdImp|Product Description: AutoCAD Mechanical|Company: Autodesk, Inc."
 90
     1024
 91
        1
280
     0
281
     0
  0
CLASS
  1
ACMCENTERLINESTANDARDANSI
  2
AmdtCenterLineStdANSI
  3
"Amdt_StdImp|Product Description: AutoCAD Mechanical|Company: Autodesk, Inc."
 90
     1024
 91
        1
280
     0
281
     0
  0
CLASS
  1
ACMTHREADLINESTANDARDANSI
  2
AmdtThreadLineStdANSI
  3
"Amdt_StdImp|Product Description: AutoCAD Mechanical|Company: Autodesk, Inc."
 90
     1024
 91
        1
280
     0
281
     0
  0
CLASS
  1
ACMNOTESTANDARDANSI
  2
AmdtNoteStdANSI
  3
"Amdt_StdImp|Product Description: AutoCAD Mechanical|Company: Autodesk, Inc."
 90
     1024
 91
        1
280
     0
281
     0
  0
CLASS
  1
ACMTAPERSTANDARDANSI
  2
AcmTaperStdANSI
  3
"Amdt_StdImp|Product Description: AutoCAD Mechanical|Company: Autodesk, Inc."
 90
     1024
 91
        1
280
     0
281
     0
  0
CLASS
  1
ACMANOOTATIONVIEWSTANDARDANSI
  2
AmdtAnViewStdANSI
  3
"Amdt_StdImp|Product Description: AutoCAD Mechanical|Company: Autodesk, Inc."
 90
     1024
 91
        1
280
     0
281
     0
  0
CLASS
  1
ACAMGLAYSTD
  2
AcAmgLayStd
  3
"AmgLay|Product Description: AutoCAD Mechanical|Company: Autodesk, Inc."
 90
     1024
 91
        1
280
     0
281
     0
  0
CLASS
  1
ACAMGDIMSTD
  2
AcAmgDimStd
  3
"AmgDim|Product Description: AutoCAD Mechanical|Company: Autodesk, Inc."
 90
     1024
 91
        1
280
     0
281
     0
  0
CLASS
  1
AMGOBJPROPCFG
  2
AmgObjPropCfg
  3
"AmgLay|Product Description: AutoCAD Mechanical|Company: Autodesk, Inc."
 90
     1024
 91
        1
280
     0
281
     0
  0
CLASS
  1
ACAMGHOLECHARTSTDANSI
  2
AcAmgHoleChartStdANSI
  3
AmgDim|Product Description: AutoCAD Mechanical|Company: Autodesk, Inc.
 90
     1024
 91
        1
280
     0
281
     0
  0
CLASS
  1
ACAMGTITLESTD
  2
AcAmgTitleStd
  3
"AmgTitle|Product Description: AutoCAD Mechanical|Company: Autodesk, Inc."
 90
     1024
 91
        1
280
     0
281
     0
  0
CLASS
  1
ACMSECTIONSTANDARDCUSTOM
  2
AmdtSectionSymStdCustom
  3
"Amdt_StdImp|Product Description: AutoCAD Mechanical|Company: Autodesk, Inc."
 90
     1024
 91
        2
280
     0
281
     0
  0
CLASS
  1
ACMDETAILTANDARDCUSTOM
  2
AmdtDetailSymStdCustom
  3
"Amdt_StdImp|Product Description: AutoCAD Mechanical|Company: Autodesk, Inc."
 90
     1024
 91
        2
280
     0
281
     0
  0
CLASS
  1
FIELD
  2
AcDbField
  3
ObjectDBX Classes
 90
     1152
 91
        8
280
     0
281
     0
  0
CLASS
  1
FIELDLIST
  2
AcDbFieldList
  3
ObjectDBX Classes
 90
     1152
 91
        1
280
     0
281
     0
  0
CLASS
  1
AMDTNOTETEMPLATEDB
  2
AmdtNoteTemplateDB
  3
AcmSymBB|Product Description: AutoCAD Mechanical|Company: Autodesk, Inc.
 90
     1024
 91
        7
280
     0
281
     0
  0
CLASS
  1
ACAD_EVALUATION_GRAPH
  2
AcDbEvalGraph
  3
ObjectDBX Classes
 90
     1153
 91
        0
280
     0
281
     0
  0
CLASS
  1
ACAECUSTOBJ
  2
AcAeEditorObj
  3
AcAeEditorObj
 90
     1024
 91
        0
280
     0
281
     0
  0
CLASS
  1
ACAMGFILTERDAT
  2
AcAmgFilterDat
  3
"AcadM|Product Description: AutoCAD Mechanical|Company: Autodesk, Inc."
 90
     1024
 91
        6
280
     0
281
     0
  0
CLASS
  1
ACDB_DYNAMICBLOCKPURGEPREVENTER_VERSION
  2
AcDbDynamicBlockPurgePreventer
  3
ObjectDBX Classes
 90
     1153
 91
        0
280
     0
281
     0
  0
CLASS
  1
CAMSSTRUCTBTNSTATE
  2
StructBtnState
  3
DesignerAssemblies
 90
     1024
 91
        1
280
     0
281
     0
  0
CLASS
  1
CELLSTYLEMAP
  2
AcDbCellStyleMap
  3
ObjectDBX Classes
 90
     1152
 91
        1
280
     0
281
     0
  0
ENDSEC
  0
SECTION
  2
TABLES
  0
TABLE
  2
VPORT
  5
19
102
{ACAD_XDICTIONARY
360
775
102
}
330
0
100
AcDbSymbolTable
 70
     1
  0
VPORT
  5
684
330
19
100
AcDbSymbolTableRecord
100
AcDbViewportTableRecord
  2
*Active
 70
     0
 10
0.0
 20
0.0
 11
1.0
 21
1.0
 12
77.27689431629561
 22
44.00000020489098
 13
0.0
 23
0.0
 14
0.5
 24
0.5
 15
2.0
 25
2.0
 16
0.0
 26
0.0
 36
1.0
 17
0.0
 27
0.0
 37
0.0
 40
80.52523204919642
 41
2.219128329297821
 42
50.0
 43
0.0
 44
0.0
 50
0.0
 51
0.0
 71
     0
 72
   100
 73
     1
 74
     0
 75
     0
 76
     0
 77
     0
 78
     0
281
     0
 65
     1
110
0.0
120
0.0
130
0.0
111
1.0
121
0.0
131
0.0
112
0.0
122
1.0
132
0.0
 79
     0
146
0.0
348
690
 60
     3
 61
     5
292
     1
282
     1
141
0.0
142
0.0
 63
   250
421
  3355443
1001
ACAD_NAV_VCDISPLAY
1070
     3
  0
ENDTAB
  0
TABLE
  2
LTYPE
  5
14
330
0
100
AcDbSymbolTable
 70
    16
  0
LTYPE
  5
15
330
14
100
AcDbSymbolTableRecord
100
AcDbLinetypeTableRecord
  2
BYBLOCK
 70
     0
  3

 72
    65
 73
     0
 40
0.0
  0
LTYPE
  5
16
330
14
100
AcDbSymbolTableRecord
100
AcDbLinetypeTableRecord
  2
BYLAYER
 70
     0
  3

 72
    65
 73
     0
 40
0.0
  0
LTYPE
  5
8
330
14
100
AcDbSymbolTableRecord
100
AcDbLinetypeTableRecord
  2
CONTINUOUS
 70
     0
  3
Solid line
 72
    65
 73
     0
 40
0.0
  0
LTYPE
  5
27
330
14
100
AcDbSymbolTableRecord
100
AcDbLinetypeTableRecord
  2
HIDDEN
 70
     0
  3
Hidden __ __ __ __ __ __ __ __ __ __ __ __ __ _
 72
    65
 73
     2
 40
0.375
 49
0.25
 74
     0
 49
-0.125
 74
     0
  0
LTYPE
  5
D02
330
14
100
AcDbSymbolTableRecord
100
AcDbLinetypeTableRecord
  2
PHANTOM2
 70
     0
  3
Phantom (.5x) ___ _ _ ___ _ _ ___ _ _ ___ _ _
 72
    65
 73
     6
 40
1.25
 49
0.625
 74
     0
 49
-0.125
 74
     0
 49
0.125
 74
     0
 49
-0.125
 74
     0
 49
0.125
 74
     0
 49
-0.125
 74
     0
  0
LTYPE
  5
D03
330
14
100
AcDbSymbolTableRecord
100
AcDbLinetypeTableRecord
  2
CENTER
 70
     0
  3
Center ____ _ ____ _ ____ _ ____ _ ____ _ ____
 72
    65
 73
     4
 40
2.0
 49
1.25
 74
     0
 49
-0.25
 74
     0
 49
0.25
 74
     0
 49
-0.25
 74
     0
  0
LTYPE
  5
D3F
330
14
100
AcDbSymbolTableRecord
100
AcDbLinetypeTableRecord
  2
AM_ISO02W050
 70
     0
  3
__ __ __ __ __ __ __ __ __ __ __ __ __ __ __
 72
    65
 73
     2
 40
7.5
 49
6.0
 74
     0
 49
-1.5
 74
     0
  0
LTYPE
  5
D40
330
14
100
AcDbSymbolTableRecord
100
AcDbLinetypeTableRecord
  2
AM_ISO08W050
 70
     0
  3
____ . ____ . ____ . ____ . ____ . ____ . ____
 72
    65
 73
     4
 40
18.0
 49
12.0
 74
     0
 49
-1.5
 74
     0
 49
3.0
 74
     0
 49
-1.5
 74
     0
  0
LTYPE
  5
D41
330
14
100
AcDbSymbolTableRecord
100
AcDbLinetypeTableRecord
  2
AM_ISO09W050
 70
     0
  3
_____ . . _____ . . _____ . . ____ .. ____
 72
    65
 73
     6
 40
22.5
 49
12.0
 74
     0
 49
-1.5
 74
     0
 49
3.0
 74
     0
 49
-1.5
 74
     0
 49
3.0
 74
     0
 49
-1.5
 74
     0
  0
LTYPE
  5
D42
330
14
100
AcDbSymbolTableRecord
100
AcDbLinetypeTableRecord
  2
Amconstr
 70
     0
  3
_______________________
 72
    65
 73
     2
 40
9999.0
 49
9999.0
 74
     0
 49
0.0
 74
     0
  0
LTYPE
  5
D43
330
14
100
AcDbSymbolTableRecord
100
AcDbLinetypeTableRecord
  2
AM_ISO08W050x2
 70
     0
  3
__ . __ . __ . __ . __ . __
 72
    65
 73
     4
 40
9.0
 49
6.0
 74
     0
 49
-0.75
 74
     0
 49
1.5
 74
     0
 49
-0.75
 74
     0
  0
LTYPE
  5
D44
330
14
100
AcDbSymbolTableRecord
100
AcDbLinetypeTableRecord
  2
AM_ISO02W050x2
 70
     0
  3
 _ _ _ _ _ _ _ _ _ _ _ _
 72
    65
 73
     2
 40
3.75
 49
3.0
 74
     0
 49
-0.75
 74
     0
  0
LTYPE
  5
D47
330
14
100
AcDbSymbolTableRecord
100
AcDbLinetypeTableRecord
  2
Amzigzag
 70
     0
  3
/\/-/\/-/\/-/\/-/\/-/\/
 72
    65
 73
     2
 40
11.0001
 49
0.0001
 74
     4
 75
   136
340
D46
 46
0.04
 50
0.0
 44
0.0
 45
0.0
 49
-11.0
 74
     0
  0
LTYPE
  5
D48
330
14
100
AcDbSymbolTableRecord
100
AcDbLinetypeTableRecord
  2
CENTER2
 70
     0
  3
Center (.5x) ___ _ ___ _ ___ _ ___ _ ___ _ ___
 72
    65
 73
     4
 40
1.125
 49
0.75
 74
     0
 49
-0.125
 74
     0
 49
0.125
 74
     0
 49
-0.125
 74
     0
  0
LTYPE
  5
D49
330
14
100
AcDbSymbolTableRecord
100
AcDbLinetypeTableRecord
  2
HIDDEN2
 70
     0
  3
Hidden (.5x) _ _ _ _ _ _ _ _ _ _ _ _ _ _ _ _ _
 72
    65
 73
     2
 40
0.1875
 49
0.125
 74
     0
 49
-0.0625
 74
     0
  0
LTYPE
  5
D4A
330
14
100
AcDbSymbolTableRecord
100
AcDbLinetypeTableRecord
  2
Amzigzag2
 70
     0
  3
/\/-/\/-/\/-/\/-/\/-/\/
 72
    65
 73
     2
 40
0.4401
 49
0.0001
 74
     4
 75
   136
340
D46
 46
0.0016
 50
0.0
 44
0.0
 45
0.0
 49
-0.4400000000000001
 74
     0
  0
LTYPE
  5
D5A
330
14
100
AcDbSymbolTableRecord
100
AcDbLinetypeTableRecord
  2
ACANSTGB
 70
     0
  3
__ . . __ . .
 72
    65
 73
     6
 40
0.35433070866
 49
0.15748031496
 74
     0
 49
-0.03937007874
 74
     0
 49
0.03937007874
 74
     0
 49
-0.03937007874
 74
     0
 49
0.03937007874
 74
     0
 49
-0.03937007874
 74
     0
  0
LTYPE
  5
D5B
330
14
100
AcDbSymbolTableRecord
100
AcDbLinetypeTableRecord
  2
ACANSTGL
 70
     0
  3
_ _ _ _ _
 72
    65
 73
     2
 40
0.11811023622
 49
0.07874015748
 74
     0
 49
-0.03937007874
 74
     0
  0
ENDTAB
  0
TABLE
  2
LAYER
  5
10
102
{ACAD_XDICTIONARY
360
6A1
102
}
330
0
100
AcDbSymbolTable
 70
     5
  0
LAYER
  5
4
102
{ACAD_XDICTIONARY
360
CA5
102
}
330
10
100
AcDbSymbolTableRecord
100
AcDbLayerTableRecord
  2
0
 70
     0
 62
     7
  6
CONTINUOUS
370
    -3
390
5
347
689
348
0
  0
LAYER
  5
26
102
{ACAD_XDICTIONARY
360
CA7
102
}
330
10
100
AcDbSymbolTableRecord
100
AcDbLayerTableRecord
  2
NOTES
 70
     0
 62
     7
  6
CONTINUOUS
370
    -3
390
5
347
689
348
0
  0
LAYER
  5
243
102
{ACAD_XDICTIONARY
360
CA9
102
}
330
10
100
AcDbSymbolTableRecord
100
AcDbLayerTableRecord
  2
BORDER
 70
     0
 62
     7
  6
CONTINUOUS
370
    -3
390
5
347
689
348
0
  0
LAYER
  5
524
330
10
100
AcDbSymbolTableRecord
100
AcDbLayerTableRecord
  2
Defpoints
 70
     0
 62
     7
  6
CONTINUOUS
290
     0
370
    -3
390
5
347
689
348
0
  0
LAYER
  5
DD1
102
{ACAD_XDICTIONARY
360
DD2
102
}
330
10
100
AcDbSymbolTableRecord
100
AcDbLayerTableRecord
  2
DIMENSION
 70
     0
 62
     7
  6
CONTINUOUS
370
    -3
390
5
347
689
348
0
  0
ENDTAB
  0
TABLE
  2
STYLE
  5
11
330
0
100
AcDbSymbolTable
 70
     6
  0
STYLE
  5
12
330
11
100
AcDbSymbolTableRecord
100
AcDbTextStyleTableRecord
  2
STANDARD
 70
     0
 40
0.0
 41
1.0
 50
0.0
 71
     0
 42
0.2
  3
txt
  4

  0
STYLE
  5
45
330
11
100
AcDbSymbolTableRecord
100
AcDbTextStyleTableRecord
  2
SIMPLEX
 70
     0
 40
0.0
 41
1.0
 50
0.0
 71
     0
 42
1.0
  3
ROMANS
  4

  0
STYLE
  5
22
330
11
100
AcDbSymbolTableRecord
100
AcDbTextStyleTableRecord
  2
MASTER
 70
     0
 40
0.0
 41
0.8
 50
0.0
 71
     0
 42
1.0
  3
romans.shx
  4

  0
STYLE
  5
D46
330
11
100
AcDbSymbolTableRecord
100
AcDbTextStyleTableRecord
  2

 70
     1
 40
0.0
 41
1.0
 50
0.0
 71
     0
 42
1.0
  3
genltshp.shx
  4

  0
STYLE
  5
D58
330
11
100
AcDbSymbolTableRecord
100
AcDbTextStyleTableRecord
  2
ACANSTS
 70
     0
 40
0.0
 41
1.0
 50
0.0
 71
     0
 42
1.0
  3
romans.shx
  4

  0
STYLE
  5
D59
330
11
100
AcDbSymbolTableRecord
100
AcDbTextStyleTableRecord
  2
ACANSGDT
 70
     0
 40
0.0
 41
1.0
 50
0.0
 71
     0
 42
1.0
  3
amgdt.shx
  4

  0
ENDTAB
  0
TABLE
  2
VIEW
  5
17
330
0
100
AcDbSymbolTable
 70
     0
  0
ENDTAB
  0
TABLE
  2
UCS
  5
18
330
0
100
AcDbSymbolTable
 70
     0
  0
ENDTAB
  0
TABLE
  2
APPID
  5
1B
330
0
100
AcDbSymbolTable
 70
    20
  0
APPID
  5
1C
330
1B
100
AcDbSymbolTableRecord
100
AcDbRegAppTableRecord
  2
ACAD
 70
     0
  0
APPID
  5
274
330
1B
100
AcDbSymbolTableRecord
100
AcDbRegAppTableRecord
  2
MASTER_SIZING
 70
     0
  0
APPID
  5
273
330
1B
100
AcDbSymbolTableRecord
100
AcDbRegAppTableRecord
  2
PAPERSPACE
 70
     0
  0
APPID
  5
33F
330
1B
100
AcDbSymbolTableRecord
100
AcDbRegAppTableRecord
  2
MASTER-TITLE
 70
     0
  0
APPID
  5
8DA
330
1B
100
AcDbSymbolTableRecord
100
AcDbRegAppTableRecord
  2
ACAD_EXEMPT_FROM_CAD_STANDARDS
 70
     0
  0
APPID
  5
CB4
330
1B
100
AcDbSymbolTableRecord
100
AcDbRegAppTableRecord
  2
ACAD_NAV_VCDISPLAY
 70
     0
  0
APPID
  5
CFB
330
1B
100
AcDbSymbolTableRecord
100
AcDbRegAppTableRecord
  2
MCAD_NO_VIS
 70
     0
  0
APPID
  5
CFC
330
1B
100
AcDbSymbolTableRecord
100
AcDbRegAppTableRecord
  2
ACAD_TEMP_GRAPHIC
 70
     0
  0
APPID
  5
D08
330
1B
100
AcDbSymbolTableRecord
100
AcDbRegAppTableRecord
  2
ACATTRIBSERVICES
 70
     0
  0
APPID
  5
D20
330
1B
100
AcDbSymbolTableRecord
100
AcDbRegAppTableRecord
  2
DESIGNERASSEMBLIES
 70
     0
  0
APPID
  5
D3C
330
1B
100
AcDbSymbolTableRecord
100
AcDbRegAppTableRecord
  2
ACAD_DSTYLE_DIMJAG
 70
     0
  0
APPID
  5
D3D
330
1B
100
AcDbSymbolTableRecord
100
AcDbRegAppTableRecord
  2
ACAD_DSTYLE_DIMBREAK
 70
     0
  0
APPID
  5
D71
330
1B
100
AcDbSymbolTableRecord
100
AcDbRegAppTableRecord
  2
GENIUS_GENSCREG_15
 70
     0
  0
APPID
  5
D72
330
1B
100
AcDbSymbolTableRecord
100
AcDbRegAppTableRecord
  2
GENIUS_GENODEF_13
 70
     0
  0
APPID
  5
D73
330
1B
100
AcDbSymbolTableRecord
100
AcDbRegAppTableRecord
  2
GENIUS_GENOBJ-N-SDF_13
 70
     0
  0
APPID
  5
DC5
330
1B
100
AcDbSymbolTableRecord
100
AcDbRegAppTableRecord
  2
ACAUTHENVIRON
 70
     0
  0
APPID
  5
DD3
330
1B
100
AcDbSymbolTableRecord
100
AcDbRegAppTableRecord
  2
ACAD_PSEXT
 70
     0
  0
APPID
  5
DD4
330
1B
100
AcDbSymbolTableRecord
100
AcDbRegAppTableRecord
  2
AcDbDynamicBlockGUID
 70
     0
  0
APPID
  5
DD5
330
1B
100
AcDbSymbolTableRecord
100
AcDbRegAppTableRecord
  2
GENIUS_AMGTXT_16
 70
     0
  0
APPID
  5
DF9
330
1B
100
AcDbSymbolTableRecord
100
AcDbRegAppTableRecord
  2
AcDbDynamicBlockTrueName
 70
     0
  0
ENDTAB
  0
TABLE
  2
DIMSTYLE
  5
1D
330
0
100
AcDbSymbolTable
 70
     8
100
AcDbDimStyleTable
 71
     1
340
24
  0
DIMSTYLE
105
34
330
1D
100
AcDbSymbolTableRecord
100
AcDbDimStyleTableRecord
  2
STANDARD
 70
     0
340
12
  0
DIMSTYLE
105
24
330
1D
100
AcDbSymbolTableRecord
100
AcDbDimStyleTableRecord
  2
ENGLISH
 70
     0
  4
mm
 40
5.333300000000001
 42
0.06
 44
0.1
140
0.125
271
     2
272
     2
288
     1
340
12
  0
DIMSTYLE
105
D3B
102
{ACAD_REACTORS
330
D2B
102
}
330
1D
100
AcDbSymbolTableRecord
100
AcDbDimStyleTableRecord
  2
AM_ANSI
 70
     0
  4
mm
 41
0.12
 42
0.05
 43
0.5
 44
0.1
 47
0.1
 48
0.1
 78
     7
 79
     2
 90
     1
140
0.12
141
0.0
146
0.71
147
0.06
176
   256
177
   256
178
   140
274
     4
284
     7
340
12
345
15
346
15
347
15
371
    -1
372
    -1
1001
ACAD_DSTYLE_DIMJAG
1070
   388
1040
1.5
1001
ACAD_DSTYLE_DIMBREAK
1070
   391
1040
0.125
  0
DIMSTYLE
105
D4B
330
1D
100
AcDbSymbolTableRecord
100
AcDbDimStyleTableRecord
  2
AM_ANSI$3
 70
     0
  4
mm
 41
0.12
 42
0.05
 43
0.5
 44
0.1
 47
0.1
 48
0.1
 78
     7
 79
     2
 90
     1
140
0.12
141
0.0
146
0.71
147
0.06
176
   256
177
   256
178
   140
274
     4
284
     7
288
     1
289
     0
340
12
345
15
346
15
347
15
371
    -1
372
    -1
1001
ACAD_DSTYLE_DIMBREAK
1070
   391
1040
0.125
1001
ACAD_DSTYLE_DIMJAG
1070
   388
1040
1.5
  0
DIMSTYLE
105
D4C
330
1D
100
AcDbSymbolTableRecord
100
AcDbDimStyleTableRecord
  2
AM_ANSI$4
 70
     0
  4
mm
 41
0.12
 42
0.05
 43
0.5
 44
0.1
 47
0.1
 48
0.1
 78
     7
 79
     2
 90
     1
140
0.12
141
0.0
146
0.71
147
0.06
176
   256
177
   256
178
   140
274
     4
284
     7
288
     1
289
     0
340
12
345
15
346
15
347
15
371
    -1
372
    -1
1001
ACAD_DSTYLE_DIMBREAK
1070
   391
1040
0.125
1001
ACAD_DSTYLE_DIMJAG
1070
   388
1040
1.5
  0
DIMSTYLE
105
D4D
330
1D
100
AcDbSymbolTableRecord
100
AcDbDimStyleTableRecord
  2
AM_ANSI$7
 70
     0
  4
mm
 41
0.12
 42
0.05
 43
0.5
 44
0.1
 47
0.1
 48
0.1
 78
     7
 79
     2
 90
     1
140
0.12
141
0.0
146
0.71
147
0.06
176
   256
177
   256
178
   140
274
     4
284
     7
340
12
345
15
346
15
347
15
371
    -1
372
    -1
1001
ACAD_DSTYLE_DIMBREAK
1070
   391
1040
0.125
1001
ACAD_DSTYLE_DIMJAG
1070
   388
1040
1.5
  0
DIMSTYLE
105
D4E
330
1D
100
AcDbSymbolTableRecord
100
AcDbDimStyleTableRecord
  2
AM_ANSI$SF
 70
     0
  4
mm
 41
0.12
 42
0.05
 43
0.5
 44
0.1
 47
0.1
 48
0.1
 75
     1
 76
     1
 78
     7
 79
     2
 90
     1
140
0.12
141
0.0
146
0.71
147
0.06
176
   256
177
   256
178
   140
274
     4
284
     7
340
12
345
15
346
15
347
15
371
    -1
372
    -1
1001
ACAD_DSTYLE_DIMBREAK
1070
   391
1040
0.125
1001
ACAD_DSTYLE_DIMJAG
1070
   388
1040
1.5
  0
DIMSTYLE
105
D53
330
1D
100
AcDbSymbolTableRecord
100
AcDbDimStyleTableRecord
  2
AM_ANSI$SH
 70
     0
  4
mm
 41
0.12
 42
0.05
 43
0.5
 44
0.1
 47
0.1
 48
0.1
 75
     1
 76
     1
 78
     7
 79
     2
 90
     1
140
0.12
141
0.0
146
0.71
147
0.06
173
     1
176
   256
177
   256
178
   140
274
     4
284
     7
340
12
343
D4F
345
15
346
15
347
15
371
    -1
372
    -1
1001
ACAD_DSTYLE_DIMBREAK
1070
   391
1040
0.125
1001
ACAD_DSTYLE_DIMJAG
1070
   388
1040
1.5
  0
ENDTAB
  0
TABLE
  2
BLOCK_RECORD
  5
1
330
0
100
AcDbSymbolTable
 70
     9
  0
BLOCK_RECORD
  5
2
102
{ACAD_XDICTIONARY
360
397
102
}
330
1
100
AcDbSymbolTableRecord
100
AcDbBlockTableRecord
  2
*MODEL_SPACE
340
A
 70
     0
280
     1
281
     0
  0
BLOCK_RECORD
  5
C
102
{ACAD_XDICTIONARY
360
39D
102
}
330
1
100
AcDbSymbolTableRecord
100
AcDbBlockTableRecord
  2
*PAPER_SPACE
340
F
 70
     0
280
     1
281
     0
  0
BLOCK_RECORD
  5
26F
330
1
100
AcDbSymbolTableRecord
100
AcDbBlockTableRecord
  2
MASTER-BORDER
340
0
102
{BLKREFS
331
26E
102
}
 70
     0
280
     1
281
     0
  0
BLOCK_RECORD
  5
284
102
{ACAD_XDICTIONARY
360
DC6
102
}
330
1
100
AcDbSymbolTableRecord
100
AcDbBlockTableRecord
  2
TITLEB
340
0
102
{BLKREFS
331
275
102
}
 70
     0
280
     1
281
     0
1001
AcDbDynamicBlockGUID
1000
{6AF8AAE8-6991-9B46-BCEE-0FBDE079A437}
  0
BLOCK_RECORD
  5
244
330
1
100
AcDbSymbolTableRecord
100
AcDbBlockTableRecord
  2
REVISE12
340
0
102
{BLKREFS
331
23E
331
250
331
256
331
25C
331
262
331
268
331
6AF
102
}
 70
     0
280
     1
281
     0
  0
BLOCK_RECORD
  5
D18
330
1
100
AcDbSymbolTableRecord
100
AcDbBlockTableRecord
  2
*U6
340
0
 70
     0
280
     1
281
     0
  0
BLOCK_RECORD
  5
D4F
330
1
100
AcDbSymbolTableRecord
100
AcDbBlockTableRecord
  2
GENAXEH
340
0
 70
     0
280
     1
281
     0
  0
BLOCK_RECORD
  5
D5D
330
1
100
AcDbSymbolTableRecord
100
AcDbBlockTableRecord
  2
_ACMFILLEDHALF
340
0
 70
     0
280
     1
281
     0
  0
ENDTAB
  0
ENDSEC
  0
SECTION
  2
BLOCKS
  0
BLOCK
  5
3
330
2
100
AcDbEntity
  8
0
100
AcDbBlockBegin
  2
*MODEL_SPACE
 70
     0
 10
0.0
 20
0.0
 30
0.0
  3
*MODEL_SPACE
  1

  0
ENDBLK
  5
9
330
2
100
AcDbEntity
  8
0
100
AcDbBlockEnd
  0
BLOCK
  5
D
330
C
100
AcDbEntity
 67
     1
  8
0
100
AcDbBlockBegin
  2
*PAPER_SPACE
 70
     0
 10
0.0
 20
0.0
 30
0.0
  3
*PAPER_SPACE
  1

  0
ENDBLK
  5
E
330
C
100
AcDbEntity
 67
     1
  8
0
100
AcDbBlockEnd
  0
BLOCK
  5
271
330
26F
100
AcDbEntity
  8
0
100
AcDbBlockBegin
  2
MASTER-BORDER
 70
     0
 10
0.0
 20
0.0
 30
0.0
  3
MASTER-BORDER
  1

  0
LWPOLYLINE
  5
270
330
26F
100
AcDbEntity
  8
BORDER
100
AcDbPolyline
 90
        4
 70
     1
 43
0.0
 10
0.5
 20
0.5
 10
16.5
 20
0.5
 10
16.5
 20
10.5
 10
0.5
 20
10.5
  0
ENDBLK
  5
272
330
26F
100
AcDbEntity
  8
0
100
AcDbBlockEnd
  0
BLOCK
  5
33C
330
284
100
AcDbEntity
  8
0
100
AcDbBlockBegin
  2
TITLEB
 70
     2
 10
0.0
 20
0.0
 30
0.0
  3
TITLEB
  1

  0
LINE
  5
D77
330
284
100
AcDbEntity
  8
0
100
AcDbLine
 10
0.0
 20
1.75
 30
0.0
 11
-8.75
 21
1.75
 31
0.0
  0
LINE
  5
D78
330
284
100
AcDbEntity
  8
0
100
AcDbLine
 10
-8.75
 20
0.0
 30
0.0
 11
-8.75
 21
1.75
 31
0.0
  0
LINE
  5
D79
330
284
100
AcDbEntity
  8
0
100
AcDbLine
 10
-3.75
 20
0.0
 30
0.0
 11
-3.75
 21
1.75
 31
0.0
  0
LINE
  5
D7A
330
284
100
AcDbEntity
  8
0
100
AcDbLine
 10
-4.75
 20
0.0
 30
0.0
 11
-4.75
 21
1.75
 31
0.0
  0
LINE
  5
D7B
330
284
100
AcDbEntity
  8
0
100
AcDbLine
 10
0.0
 20
1.25
 30
0.0
 11
-3.75
 21
1.25
 31
0.0
  0
LINE
  5
D7C
330
284
100
AcDbEntity
  8
0
100
AcDbLine
 10
0.0
 20
0.5
 30
0.0
 11
-3.75
 21
0.5
 31
0.0
  0
LINE
  5
D7D
330
284
100
AcDbEntity
  8
0
100
AcDbLine
 10
-1.75
 20
0.25
 30
0.0
 11
-3.75
 21
0.25
 31
0.0
  0
LINE
  5
D7E
330
284
100
AcDbEntity
  8
0
100
AcDbLine
 10
-2.75
 20
0.0
 30
0.0
 11
-2.75
 21
0.5
 31
0.0
  0
LINE
  5
D7F
330
284
100
AcDbEntity
  8
0
100
AcDbLine
 10
-1.75
 20
0.0
 30
0.0
 11
-1.75
 21
0.5
 31
0.0
  0
LINE
  5
D80
330
284
100
AcDbEntity
  8
0
100
AcDbLine
 10
-8.75
 20
0.25
 30
0.0
 11
-4.75
 21
0.25
 31
0.0
  0
LINE
  5
D81
330
284
100
AcDbEntity
  8
0
100
AcDbLine
 10
-8.75
 20
0.5
 30
0.0
 11
-4.75
 21
0.5
 31
0.0
  0
LINE
  5
D82
330
284
100
AcDbEntity
  8
0
100
AcDbLine
 10
-8.75
 20
0.75
 30
0.0
 11
-4.75
 21
0.75
 31
0.0
  0
LINE
  5
D83
330
284
100
AcDbEntity
  8
0
100
AcDbLine
 10
-8.75
 20
1.0
 30
0.0
 11
-4.75
 21
1.0
 31
0.0
  0
LINE
  5
D84
330
284
100
AcDbEntity
  8
0
100
AcDbLine
 10
-8.75
 20
1.25
 30
0.0
 11
-4.75
 21
1.25
 31
0.0
  0
LINE
  5
D85
330
284
100
AcDbEntity
  8
0
100
AcDbLine
 10
-8.75
 20
1.5
 30
0.0
 11
-4.75
 21
1.5
 31
0.0
  0
LINE
  5
D86
330
284
100
AcDbEntity
  8
0
100
AcDbLine
 10
-8.5
 20
0.0
 30
0.0
 11
-8.5
 21
0.25
 31
0.0
  0
LINE
  5
D87
330
284
100
AcDbEntity
  8
0
100
AcDbLine
 10
-5.25
 20
0.0
 30
0.0
 11
-5.25
 21
0.25
 31
0.0
  0
LINE
  5
D88
330
284
100
AcDbEntity
  8
0
100
AcDbLine
 10
-6.0
 20
0.0
 30
0.0
 11
-6.0
 21
0.25
 31
0.0
  0
TEXT
  5
DA1
330
284
100
AcDbEntity
  8
0
100
AcDbText
 10
-3.71875
 20
0.40625
 30
0.0
 40
0.0625
  1
DRN. BY
 41
0.8
100
AcDbText
  0
TEXT
  5
DA2
330
284
100
AcDbEntity
  8
0
100
AcDbText
 10
-2.71875
 20
0.40625
 30
0.0
 40
0.0625
  1
DATE
 41
0.8
100
AcDbText
  0
TEXT
  5
DA3
330
284
100
AcDbEntity
  8
0
100
AcDbText
 10
-1.71875
 20
0.40625
 30
0.0
 40
0.0625
  1
DWG. NO.
 41
0.8
100
AcDbText
  0
TEXT
  5
DA4
330
284
100
AcDbEntity
  8
0
100
AcDbText
 10
-2.71875
 20
0.15625
 30
0.0
 40
0.0625
  1
APRVD.
 41
0.8
100
AcDbText
  0
TEXT
  5
DA5
330
284
100
AcDbEntity
  8
0
100
AcDbText
 10
-3.71875
 20
0.15625
 30
0.0
 40
0.0625
  1
SCALE
 41
0.8
100
AcDbText
  0
TEXT
  5
DA6
330
284
100
AcDbEntity
  8
0
100
AcDbText
 10
-4.59375
 20
1.625
 30
0.0
 40
0.09
  1
TOLERANCES
 41
0.8
100
AcDbText
  0
TEXT
  5
DA7
330
284
100
AcDbEntity
  8
0
100
AcDbText
 10
-4.71875
 20
1.375
 30
0.0
 40
0.0625
  1
DECIMAL
 41
0.8
100
AcDbText
  0
TEXT
  5
DA8
330
284
100
AcDbEntity
  8
0
100
AcDbText
 10
-4.71875
 20
0.65625
 30
0.0
 40
0.0625
  1
FRACTIONAL
 41
0.8
100
AcDbText
  0
TEXT
  5
DA9
330
284
100
AcDbEntity
  8
0
100
AcDbText
 10
-4.71875
 20
0.28125
 30
0.0
 40
0.0625
  1
ANGULAR
 41
0.8
100
AcDbText
  0
LINE
  5
DAA
330
284
100
AcDbEntity
  8
0
100
AcDbLine
 10
-4.75
 20
1.46875
 30
0.0
 11
-3.75
 21
1.46875
 31
0.0
  0
TEXT
  5
DAB
330
284
100
AcDbEntity
  8
0
100
AcDbText
 10
-4.625
 20
1.5
 30
0.0
 40
0.0625
  1
(EXCEPT AS NOTED)
 41
0.8
100
AcDbText
  0
LINE
  5
DAC
330
284
100
AcDbEntity
  8
0
100
AcDbLine
 10
-4.75
 20
0.375
 30
0.0
 11
-3.75
 21
0.375
 31
0.0
  0
LINE
  5
DAD
330
284
100
AcDbEntity
  8
0
100
AcDbLine
 10
-4.75
 20
0.75
 30
0.0
 11
-3.75
 21
0.75
 31
0.0
  0
TEXT
  5
DAE
330
284
100
AcDbEntity
  8
0
100
AcDbText
 10
-4.6875
 20
1.09375
 30
0.0
 40
0.125
  1
.XX %%p
 41
0.8
100
AcDbText
  0
TEXT
  5
DAF
330
284
100
AcDbEntity
  8
0
100
AcDbText
 10
-4.6875
 20
0.84375
 30
0.0
 40
0.125
  1
.XXX%%p
 41
0.8
100
AcDbText
  0
TEXT
  5
DB0
330
284
100
AcDbEntity
  8
0
100
AcDbText
 10
-4.625
 20
0.46875
 30
0.0
 40
0.125
  1
%%p
 41
0.8
100
AcDbText
  0
TEXT
  5
DB1
330
284
100
AcDbEntity
  8
0
100
AcDbText
 10
-4.625
 20
0.09375
 30
0.0
 40
0.125
  1
%%p
 41
0.8
100
AcDbText
  0
TEXT
  5
DB2
330
284
100
AcDbEntity
  8
0
100
AcDbText
 10
-5.09375
 20
0.0625
 30
0.0
 40
0.125
  1
BY
 41
0.8
100
AcDbText
  0
TEXT
  5
DB3
330
284
100
AcDbEntity
  8
0
100
AcDbText
 10
-8.71875
 20
0.0625
 30
0.0
 40
0.125
  1
NO
 41
0.8
100
AcDbText
  0
TEXT
  5
DB4
330
284
100
AcDbEntity
  8
0
100
AcDbText
 10
-7.53125
 20
0.0625
 30
0.0
 40
0.125
  1
REVISION
 41
0.8
100
AcDbText
  0
TEXT
  5
DB5
330
284
100
AcDbEntity
  8
0
100
AcDbText
 10
-5.8125
 20
0.0625
 30
0.0
 40
0.125
  1
DATE
 41
0.8
100
AcDbText
  0
TEXT
  5
DB6
330
284
100
AcDbEntity
  8
0
100
AcDbText
 10
-0.9375
 20
0.03125
 30
0.0
 40
0.09
  1
SHT.    OF
 41
0.8
100
AcDbText
  0
ATTDEF
  5
DB7
330
284
100
AcDbEntity
  8
0
100
AcDbText
 10
-1.28125
 20
0.25
 30
0.0
 40
0.1875
  1

 41
0.8
100
AcDbAttributeDefinition
280
     0
  3
DRAWING NUMBER
  2
DWGNO
 70
     0
280
     0
  0
ATTDEF
  5
DB8
330
284
100
AcDbEntity
  8
0
100
AcDbText
 10
-3.34375
 20
0.28125
 30
0.0
 40
0.125
  1

 41
0.8
100
AcDbAttributeDefinition
280
     0
  3
DRAWN BY
  2
DRNBY
 70
     0
280
     0
  0
ATTDEF
  5
DB9
330
284
100
AcDbEntity
  8
0
100
AcDbText
 10
-2.5
 20
0.28125
 30
0.0
 40
0.125
  1

 41
1.568181818181818
 72
     5
 11
-1.78125
 21
0.28125
 31
0.0
100
AcDbAttributeDefinition
280
     0
  3
DRAWING DATE
  2
DATE
 70
     0
280
     0
  0
ATTDEF
  5
DBA
330
284
100
AcDbEntity
  8
0
100
AcDbText
 10
-3.40625
 20
0.03125
 30
0.0
 40
0.125
  1

 41
0.8
100
AcDbAttributeDefinition
280
     0
  3
SCALE
  2
SCALE
 70
     0
280
     0
  0
ATTDEF
  5
DBB
330
284
100
AcDbEntity
  8
0
100
AcDbText
 10
-2.40625
 20
0.03125
 30
0.0
 40
0.125
  1

 41
0.8
100
AcDbAttributeDefinition
280
     0
  3
APPROVED BY
  2
APRVD
 70
     0
280
     0
  0
ATTDEF
  5
DBC
330
284
100
AcDbEntity
  8
0
100
AcDbText
 10
-0.65625
 20
0.03125
 30
0.0
 40
0.125
  1

 41
0.8
100
AcDbAttributeDefinition
280
     0
  3
SHEET
  2
SHT
 70
     0
280
     0
  0
ATTDEF
  5
DBD
330
284
100
AcDbEntity
  8
0
100
AcDbText
 10
-0.28125
 20
0.03125
 30
0.0
 40
0.125
  1

 41
0.8
100
AcDbAttributeDefinition
280
     0
  3
OF SHEET
  2
OFSHT
 70
     0
280
     0
  0
ATTDEF
  5
DBE
330
284
100
AcDbEntity
  8
0
100
AcDbText
 10
-3.59375
 20
0.875
 30
0.0
 40
0.1875
  1

 41
0.8
100
AcDbAttributeDefinition
280
     0
  3
DESCRIPTION (LINE 1 OF 2)
  2
DESC1
 70
     0
280
     0
  0
ATTDEF
  5
DBF
330
284
100
AcDbEntity
  8
0
100
AcDbText
 10
-3.59375
 20
0.59375
 30
0.0
 40
0.1875
  1

 41
0.8
100
AcDbAttributeDefinition
280
     0
  3
DESCRIPTION (LINE 2 OF 2)
  2
DESC2
 70
     0
280
     0
  0
ATTDEF
  5
DC0
330
284
100
AcDbEntity
  8
0
100
AcDbText
 10
-4.21875
 20
1.09375
 30
0.0
 40
0.125
  1
.01
 41
0.8
100
AcDbAttributeDefinition
280
     0
  3
TOLERANCE .XX
  2
TOLXX
 70
     0
280
     0
  0
ATTDEF
  5
DC1
330
284
100
AcDbEntity
  8
0
100
AcDbText
 10
-4.21875
 20
0.84375
 30
0.0
 40
0.125
  1
.005
 41
0.8
100
AcDbAttributeDefinition
280
     0
  3
TOLERANCE .XXX
  2
TOLXXX
 70
     0
280
     0
  0
ATTDEF
  5
DC2
330
284
100
AcDbEntity
  8
0
100
AcDbText
 10
-4.46875
 20
0.46875
 30
0.0
 40
0.125
  1
1/32
 41
0.8
100
AcDbAttributeDefinition
280
     0
  3
TOLERANCE - FRACTIONAL
  2
TOLFRAC
 70
     0
280
     0
  0
ATTDEF
  5
DC3
330
284
100
AcDbEntity
  8
0
100
AcDbText
 10
-4.46875
 20
0.09375
 30
0.0
 40
0.125
  1
1/2%%d
 41
0.8
100
AcDbAttributeDefinition
280
     0
  3
TOLERANCE - ANGULAR
  2
TOLANG
 70
     0
280
     0
  0
ATTDEF
  5
DC4
330
284
100
AcDbEntity
  8
0
100
AcDbText
 10
-1.59375
 20
0.09375
 30
0.0
 40
0.25
  1

 41
0.8
100
AcDbAttributeDefinition
280
     0
  3

  2
DWG.SIZE
 70
     0
280
     0
  0
MTEXT
  5
E00
330
284
100
AcDbEntity
  8
BORDER
100
AcDbMText
 10
-2.273412249162033
 20
1.574995542591171
 30
0.0
 40
0.0951216930872209
 41
0.0
 46
0.271776265963488
 71
     1
 72
     5
  1
W132 N10611 Grant Drive\PGermantown, WI 53022
 73
     1
 44
1.0
1001
GENIUS_AMGTXT_16
1040
3.5
1040
0.12
  0
SPLINE
  5
E01
330
284
100
AcDbEntity
  8
BORDER
 62
     4
100
AcDbSpline
210
0.0
220
0.0
230
1.0
 70
    24
 71
     3
 72
     8
 73
     4
 74
     0
 42
0.000000001
 43
0.0000000001
 40
2.0
 40
2.0
 40
2.0
 40
2.0
 40
3.0
 40
3.0
 40
3.0
 40
3.0
 10
-3.083112113620586
 20
1.379576897713516
 30
0.0
 10
-3.083112113620586
 20
1.379576897713516
 30
0.0
 10
-3.083118309380232
 20
1.379576897713516
 30
0.0
 10
-3.083118309380232
 20
1.379576897713516
 30
0.0
  0
SPLINE
  5
E02
330
284
100
AcDbEntity
  8
BORDER
 62
     4
100
AcDbSpline
210
0.0
220
0.0
230
1.0
 70
     8
 71
     3
 72
     8
 73
     4
 74
     0
 42
0.000000001
 43
0.0000000001
 40
3.0
 40
3.0
 40
3.0
 40
3.0
 40
4.0
 40
4.0
 40
4.0
 40
4.0
 10
-3.083118309380232
 20
1.379576897713516
 30
0.0
 10
-3.08414060972175
 20
1.381150620663493
 30
0.0
 10
-3.085045190630001
 20
1.382823475767795
 30
0.0
 10
-3.085881618182156
 20
1.384545896949264
 30
0.0
  0
SPLINE
  5
E03
330
284
100
AcDbEntity
  8
BORDER
 62
     4
100
AcDbSpline
210
0.0
220
0.0
230
1.0
 70
     8
 71
     3
 72
     8
 73
     4
 74
     0
 42
0.000000001
 43
0.0000000001
 40
4.0
 40
4.0
 40
4.0
 40
4.0
 40
5.0
 40
5.0
 40
5.0
 40
5.0
 10
-3.085881618182156
 20
1.384545896949264
 30
0.0
 10
-3.086110861289039
 20
1.385016774682329
 30
0.0
 10
-3.086296734078405
 20
1.385524826973266
 30
0.0
 10
-3.086513585666004
 20
1.386008096225619
 30
0.0
  0
SPLINE
  5
E04
330
284
100
AcDbEntity
  8
BORDER
 62
     4
100
AcDbSpline
210
0.0
220
0.0
230
1.0
 70
     8
 71
     3
 72
     8
 73
     4
 74
     0
 42
0.000000001
 43
0.0000000001
 40
5.0
 40
5.0
 40
5.0
 40
5.0
 40
6.0
 40
6.0
 40
6.0
 40
6.0
 10
-3.086513585666004
 20
1.386008096225619
 30
0.0
 10
-3.087077399793749
 20
1.387296814231898
 30
0.0
 10
-3.087622626642559
 20
1.388597923757468
 30
0.0
 10
-3.088093504375624
 20
1.389948599360202
 30
0.0
  0
SPLINE
  5
E05
330
284
100
AcDbEntity
  8
BORDER
 62
     4
100
AcDbSpline
210
0.0
220
0.0
230
1.0
 70
     8
 71
     3
 72
     8
 73
     4
 74
     0
 42
0.000000001
 43
0.0000000001
 40
6.0
 40
6.0
 40
6.0
 40
6.0
 40
7.0
 40
7.0
 40
7.0
 40
7.0
 10
-3.088093504375624
 20
1.389948599360202
 30
0.0
 10
-3.088304160203573
 20
1.390531000766886
 30
0.0
 10
-3.088477641473648
 20
1.391138185212152
 30
0.0
 10
-3.088663514263018
 20
1.391745369657417
 30
0.0
  0
SPLINE
  5
E06
330
284
100
AcDbEntity
  8
BORDER
 62
     4
100
AcDbSpline
210
0.0
220
0.0
230
1.0
 70
     8
 71
     3
 72
     8
 73
     4
 74
     0
 42
0.000000001
 43
0.0000000001
 40
7.0
 40
7.0
 40
7.0
 40
7.0
 40
8.0
 40
8.0
 40
8.0
 40
8.0
 10
-3.088663514263018
 20
1.391745369657417
 30
0.0
 10
-3.089084825918916
 20
1.393071262221569
 30
0.0
 10
-3.089475158776586
 20
1.394428133583948
 30
0.0
 10
-3.089803534037802
 20
1.395815983744558
 30
0.0
  0
SPLINE
  5
E07
330
284
100
AcDbEntity
  8
BORDER
 62
     4
100
AcDbSpline
210
0.0
220
0.0
230
1.0
 70
     8
 71
     3
 72
     8
 73
     4
 74
     0
 42
0.000000001
 43
0.0000000001
 40
8.0
 40
8.0
 40
8.0
 40
8.0
 40
9.0
 40
9.0
 40
9.0
 40
9.0
 10
-3.089803534037802
 20
1.395815983744558
 30
0.0
 10
-3.089952232269293
 20
1.396410776670531
 30
0.0
 10
-3.090082343221851
 20
1.397005569596508
 30
0.0
 10
-3.090212454174412
 20
1.397600362522483
 30
0.0
  0
SPLINE
  5
E08
330
284
100
AcDbEntity
  8
BORDER
 62
     4
100
AcDbSpline
210
0.0
220
0.0
230
1.0
 70
     8
 71
     3
 72
     8
 73
     4
 74
     0
 42
0.000000001
 43
0.0000000001
 40
9.0
 40
9.0
 40
9.0
 40
9.0
 40
10.0
 40
10.0
 40
10.0
 40
10.0
 10
-3.090212454174412
 20
1.397600362522483
 30
0.0
 10
-3.090534633675979
 20
1.399099736356712
 30
0.0
 10
-3.090819638619677
 20
1.400623893229521
 30
0.0
 10
-3.091042685966915
 20
1.402172833140914
 30
0.0
  0
SPLINE
  5
E09
330
284
100
AcDbEntity
  8
BORDER
 62
     4
100
AcDbSpline
210
0.0
220
0.0
230
1.0
 70
     8
 71
     3
 72
     8
 73
     4
 74
     0
 42
0.000000001
 43
0.0000000001
 40
10.0
 40
10.0
 40
10.0
 40
10.0
 40
11.0
 40
11.0
 40
11.0
 40
11.0
 10
-3.091042685966915
 20
1.402172833140914
 30
0.0
 10
-3.09111703508266
 20
1.402668493912559
 30
0.0
 10
-3.091203775717701
 20
1.403164154684206
 30
0.0
 10
-3.091265733314155
 20
1.403659815455849
 30
0.0
  0
SPLINE
  5
E0A
330
284
100
AcDbEntity
  8
BORDER
 62
     4
100
AcDbSpline
210
0.0
220
0.0
230
1.0
 70
     8
 71
     3
 72
     8
 73
     4
 74
     0
 42
0.000000001
 43
0.0000000001
 40
11.0
 40
11.0
 40
11.0
 40
11.0
 40
12.0
 40
12.0
 40
12.0
 40
12.0
 10
-3.091265733314155
 20
1.403659815455849
 30
0.0
 10
-3.091513563699979
 20
1.40550615183023
 30
0.0
 10
-3.091699436489346
 20
1.407377271243193
 30
0.0
 10
-3.091829547441903
 20
1.409273173694739
 30
0.0
  0
SPLINE
  5
E0B
330
284
100
AcDbEntity
  8
BORDER
 62
     4
100
AcDbSpline
210
0.0
220
0.0
230
1.0
 70
     8
 71
     3
 72
     8
 73
     4
 74
     0
 42
0.000000001
 43
0.0000000001
 40
12.0
 40
12.0
 40
12.0
 40
12.0
 40
13.0
 40
13.0
 40
13.0
 40
13.0
 10
-3.091829547441903
 20
1.409273173694739
 30
0.0
 10
-3.091841938961195
 20
1.409496221041979
 30
0.0
 10
-3.091860526240132
 20
1.409706876869928
 30
0.0
 10
-3.09187911351907
 20
1.40992992421717
 30
0.0
  0
SPLINE
  5
E0C
330
284
100
AcDbEntity
  8
BORDER
 62
     4
100
AcDbSpline
210
0.0
220
0.0
230
1.0
 70
     8
 71
     3
 72
     8
 73
     4
 74
     0
 42
0.000000001
 43
0.0000000001
 40
13.0
 40
13.0
 40
13.0
 40
13.0
 40
14.0
 40
14.0
 40
14.0
 40
14.0
 10
-3.09187911351907
 20
1.40992992421717
 30
0.0
 10
-3.092294229415323
 20
1.416695693750133
 30
0.0
 10
-3.092040203269849
 20
1.423783642784664
 30
0.0
 10
-3.09125953755451
 20
1.43089637485778
 30
0.0
  0
SPLINE
  5
E0D
330
284
100
AcDbEntity
  8
BORDER
 62
     4
100
AcDbSpline
210
0.0
220
0.0
230
1.0
 70
     8
 71
     3
 72
     8
 73
     4
 74
     0
 42
0.000000001
 43
0.0000000001
 40
14.0
 40
14.0
 40
14.0
 40
14.0
 40
15.0
 40
15.0
 40
15.0
 40
15.0
 10
-3.09125953755451
 20
1.43089637485778
 30
0.0
 10
-3.087486319930356
 20
1.426584126144464
 30
0.0
 10
-3.084809751763472
 20
1.423523420879551
 30
0.0
 10
-3.084809751763472
 20
1.423523420879551
 30
0.0
  0
SPLINE
  5
E0E
330
284
100
AcDbEntity
  8
BORDER
 62
     4
100
AcDbSpline
210
0.0
220
0.0
230
1.0
 70
     8
 71
     3
 72
     8
 73
     4
 74
     0
 42
0.000000001
 43
0.0000000001
 40
15.0
 40
15.0
 40
15.0
 40
15.0
 40
16.0
 40
16.0
 40
16.0
 40
16.0
 10
-3.084809751763472
 20
1.423523420879551
 30
0.0
 10
-3.065336479197441
 20
1.401206294636206
 30
0.0
 10
-3.04613582005582
 20
1.379205152134783
 30
0.0
 10
-3.026928965154549
 20
1.358721970746525
 30
0.0
  0
SPLINE
  5
E0F
330
284
100
AcDbEntity
  8
BORDER
 62
     4
100
AcDbSpline
210
0.0
220
0.0
230
1.0
 70
     8
 71
     3
 72
     8
 73
     4
 74
     0
 42
0.000000001
 43
0.0000000001
 40
16.0
 40
16.0
 40
16.0
 40
16.0
 40
17.0
 40
17.0
 40
17.0
 40
17.0
 10
-3.026928965154549
 20
1.358721970746525
 30
0.0
 10
-3.028638994816727
 20
1.358684796188651
 30
0.0
 10
-3.030249892324572
 20
1.358585664034322
 30
0.0
 10
-3.031997096544628
 20
1.358585664034322
 30
0.0
  0
HATCH
  5
E10
330
284
100
AcDbEntity
  8
BORDER
100
AcDbHatch
 10
0.0
 20
0.0
 30
0.0
210
0.0
220
0.0
230
1.0
  2
SOLID
 70
     1
 71
     0
 91
        1
 92
        1
 93
        1
 72
     4
 94
        3
 73
     0
 74
     0
 95
       26
 96
       22
 40
0.0
 40
0.0
 40
0.0
 40
0.0
 40
1.0
 40
1.0
 40
1.0
 40
2.0
 40
2.0
 40
2.0
 40
3.0
 40
3.0
 40
3.0
 40
4.0
 40
4.0
 40
4.0
 40
5.0
 40
5.0
 40
5.0
 40
6.0
 40
6.0
 40
6.0
 40
7.0
 40
7.0
 40
7.0
 40
7.0
 10
-3.606920221336082
 20
1.471007722803204
 10
-3.55052022128245
 20
1.528677853584177
 10
-3.417348563460549
 20
1.65390035178081
 10
-3.324133359592938
 20
1.65390035178081
 10
-3.283359065365434
 20
1.65390035178081
 10
-3.244895789485731
 20
1.633256080641769
 10
-3.207052089570584
 20
1.60167009796865
 10
-3.207052089570584
 20
1.60167009796865
 10
-3.178638335835998
 20
1.684036526696866
 10
-3.178638335835998
 20
1.684036526696866
 10
-3.178638335835998
 20
1.684036526696866
 10
-3.71515394658456
 20
1.684036526696866
 10
-3.71515394658456
 20
1.684036526696866
 10
-3.71515394658456
 20
1.684036526696866
 10
-3.750407818967858
 20
1.581794101025659
 10
-3.750407818967858
 20
1.581794101025659
 10
-3.750407818967858
 20
1.581794101025659
 10
-3.608673621315777
 20
1.581794101025659
 10
-3.568698580082557
 20
1.581794101025659
 10
-3.574138457051365
 20
1.566007305448744
 10
-3.589460570654864
 20
1.521602296068938
 10
-3.606920221336082
 20
1.471007722803204
 97
        0
 97
        0
 75
     2
 76
     1
 98
        1
 10
-4.077909478073088
 20
0.214098746544829
450
        0
451
        0
460
0.0
461
0.0
452
        0
462
0.0
453
        0
470

  0
HATCH
  5
E11
330
284
100
AcDbEntity
  8
BORDER
100
AcDbHatch
 10
0.0
 20
0.0
 30
0.0
210
0.0
220
0.0
230
1.0
  2
SOLID
 70
     1
 71
     0
 91
        1
 92
        1
 93
        1
 72
     4
 94
        3
 73
     0
 74
     0
 95
       38
 96
       34
 40
0.0
 40
0.0
 40
0.0
 40
0.0
 40
1.0
 40
1.0
 40
1.0
 40
2.0
 40
2.0
 40
2.0
 40
3.0
 40
3.0
 40
3.0
 40
4.0
 40
4.0
 40
4.0
 40
5.0
 40
5.0
 40
5.0
 40
6.0
 40
6.0
 40
6.0
 40
7.0
 40
7.0
 40
7.0
 40
8.0
 40
8.0
 40
8.0
 40
9.0
 40
9.0
 40
9.0
 40
10.0
 40
10.0
 40
10.0
 40
11.0
 40
11.0
 40
11.0
 40
11.0
 10
-3.092870435062359
 20
1.482692925494751
 10
-3.092870435062359
 20
1.482692925494751
 10
-3.082170358154456
 20
1.470450104435103
 10
-3.082170358154456
 20
1.470450104435103
 10
-3.076718089666357
 20
1.485927112029741
 10
-3.035187912762093
 20
1.593776700180191
 10
-2.937140016370936
 20
1.593776700180191
 10
-2.884959328635936
 20
1.593776700180191
 10
-2.869197316097604
 20
1.579266231090265
 10
-2.864829305547477
 20
1.57302090536753
 10
-2.863243191078211
 20
1.57075325733725
 10
-2.858410498554668
 20
1.563838789572791
 10
-2.863794613686668
 20
1.549148643453145
 10
-2.863794613686668
 20
1.549148643453145
 10
-2.873583913926669
 20
1.522420136342153
 10
-2.873583913926669
 20
1.522420136342153
 10
-2.873583913926669
 20
1.522420136342153
 10
-2.690598348554381
 20
1.522420136342153
 10
-2.690598348554381
 20
1.522420136342153
 10
-2.690598348554381
 20
1.522420136342153
 10
-2.686521538707594
 20
1.536918213912786
 10
-2.686521538707594
 20
1.536918213912786
 10
-2.676558757197518
 20
1.572240239652187
 10
-2.68103209566162
 20
1.602735768627689
 10
-2.699817638906989
 20
1.627543590248553
 10
-2.732122329698999
 20
1.670219982687246
 10
-2.805207510478147
 20
1.691855575369578
 10
-2.917022384801768
 20
1.691855575369578
 10
-3.033007005366851
 20
1.691855575369578
 10
-3.129512157606267
 20
1.655040371555596
 10
-3.193371852273166
 20
1.589761847929862
 10
-3.159933337466018
 20
1.559514149340185
 10
-3.126817002160443
 20
1.521589904549646
 10
-3.092870435062359
 20
1.482692925494751
 97
        0
 97
        0
 75
     2
 76
     1
 98
        1
 10
-4.077909478073088
 20
0.214098746544829
450
        0
451
        0
460
0.0
461
0.0
452
        0
462
0.0
453
        0
470

  0
HATCH
  5
E12
330
284
100
AcDbEntity
  8
BORDER
100
AcDbHatch
 10
0.0
 20
0.0
 30
0.0
210
0.0
220
0.0
230
1.0
  2
SOLID
 70
     1
 71
     0
 91
        1
 92
        1
 93
        1
 72
     4
 94
        3
 73
     0
 74
     0
 95
       17
 96
       13
 40
0.0
 40
0.0
 40
0.0
 40
0.0
 40
1.0
 40
1.0
 40
1.0
 40
2.0
 40
2.0
 40
2.0
 40
3.0
 40
3.0
 40
3.0
 40
4.0
 40
4.0
 40
4.0
 40
4.0
 10
-2.621887374084998
 20
1.672710678064764
 10
-2.621887374084998
 20
1.672710678064764
 10
-2.752778992357328
 20
1.316751894907429
 10
-2.752778992357328
 20
1.316751894907429
 10
-2.661490669739489
 20
1.372798736661263
 10
-2.556082210889393
 20
1.479793309980625
 10
-2.521664766058247
 20
1.515902197195012
 10
-2.521664766058247
 20
1.515902197195012
 10
-2.464007026796566
 20
1.672710678064764
 10
-2.464007026796566
 20
1.672710678064764
 10
-2.464007026796566
 20
1.672710678064764
 10
-2.621887374084998
 20
1.672710678064764
 10
-2.621887374084998
 20
1.672710678064764
 97
        0
 97
        0
 75
     2
 76
     1
 98
        1
 10
-4.077909478073088
 20
0.214098746544829
450
        0
451
        0
460
0.0
461
0.0
452
        0
462
0.0
453
        0
470

  0
HATCH
  5
E13
330
284
100
AcDbEntity
  8
BORDER
100
AcDbHatch
 10
0.0
 20
0.0
 30
0.0
210
0.0
220
0.0
230
1.0
  2
SOLID
 70
     1
 71
     0
 91
        2
 92
        1
 93
      248
 72
     1
 10
-2.765628997862243
 20
1.281820202025699
 11
-2.765645304341061
 21
1.281815375658656
 72
     1
 10
-2.765645304341063
 20
1.281815375658656
 11
-2.765664480314468
 21
1.281808548543093
 72
     1
 10
-2.765664480314466
 20
1.281808548543093
 11
-2.768526580470286
 21
1.280405028542364
 72
     1
 10
-2.768526580470288
 20
1.280405028542364
 11
-2.772899197441377
 21
1.278329366433323
 72
     1
 10
-2.772899197441377
 20
1.278329366433323
 11
-2.775957374947191
 21
1.276929473863756
 72
     1
 10
-2.775957374947191
 20
1.276929473863755
 11
-2.776347200170508
 21
1.276752280580428
 72
     1
 10
-2.776347200170508
 20
1.276752280580428
 11
-2.784508663598497
 21
1.273230813273458
 72
     1
 10
-2.784508663598495
 20
1.273230813273458
 11
-2.792988019259757
 21
1.269909853227959
 72
     1
 10
-2.792988019259757
 20
1.269909853227959
 11
-2.79651807359033
 21
1.268640627606097
 72
     1
 10
-2.79651807359033
 20
1.268640627606097
 11
-2.796853308577059
 21
1.268518675253465
 72
     1
 10
-2.796853308577059
 20
1.268518675253465
 11
-2.798135339330901
 21
1.268070277558632
 72
     1
 10
-2.798135339330899
 20
1.268070277558632
 11
-2.802137189069743
 21
1.266748805864118
 72
     1
 10
-2.802137189069743
 20
1.266748805864118
 11
-2.806119294579772
 21
1.265521685257696
 72
     1
 10
-2.806119294579772
 20
1.265521685257696
 11
-2.806925369823769
 21
1.265284445597254
 72
     1
 10
-2.806925369823769
 20
1.265284445597254
 11
-2.807408923175579
 21
1.265141991529779
 72
     1
 10
-2.807408923175579
 20
1.265141991529778
 11
-2.812026945589844
 21
1.263874446196831
 72
     1
 10
-2.812026945589842
 20
1.263874446196831
 11
-2.819807511129967
 21
1.262039046194165
 72
     1
 10
-2.819807511129969
 20
1.262039046194165
 11
-2.82599471139855
 21
1.260870604436465
 72
     1
 10
-2.82599471139855
 20
1.260870604436465
 11
-2.826618216352558
 21
1.260769431063201
 72
     1
 10
-2.826618216352557
 20
1.260769431063202
 11
-2.827241300096353
 21
1.260668678900152
 72
     1
 10
-2.827241300096353
 20
1.260668678900152
 11
-2.830428248955449
 21
1.260207968057297
 72
     1
 10
-2.830428248955449
 20
1.260207968057297
 11
-2.833997576304458
 21
1.259792290413001
 72
     1
 10
-2.833997576304458
 20
1.259792290413001
 11
-2.836059102015781
 21
1.259596112389214
 72
     1
 10
-2.836059102015781
 20
1.259596112389214
 11
-2.836715973549143
 21
1.259543275544802
 72
     1
 10
-2.836715973549143
 20
1.259543275544802
 11
-2.837864049561638
 21
1.259457330459877
 72
     1
 10
-2.837864049561636
 20
1.259457330459877
 11
-2.841483137237901
 21
1.259241213230778
 72
     1
 10
-2.841483137237901
 20
1.259241213230778
 11
-2.845068686050819
 21
1.259146193938406
 72
     1
 10
-2.845068686050819
 20
1.259146193938406
 11
-2.848467405185459
 21
1.259175173409165
 72
     1
 10
-2.848467405185457
 20
1.259175173409165
 11
-2.851825691443949
 21
1.259299387915049
 72
     1
 10
-2.851825691443949
 20
1.259299387915049
 11
-2.85400001644578
 21
1.259437405417806
 72
     1
 10
-2.854000016445779
 20
1.259437405417806
 11
-2.854831721293766
 21
1.259522292318129
 72
     1
 10
-2.854831721293766
 20
1.25952229231813
 11
-2.855868687348728
 21
1.259614461410894
 72
     1
 10
-2.855868687348728
 20
1.259614461410894
 11
-2.8584005343297
 21
1.259835273056818
 72
     1
 10
-2.8584005343297
 20
1.259835273056818
 11
-2.860929169582783
 21
1.260101680708485
 72
     1
 10
-2.860929169582783
 20
1.260101680708485
 11
-2.862126154753481
 21
1.260266983847305
 72
     1
 10
-2.862126154753481
 20
1.260266983847306
 11
-2.862931607666785
 21
1.260399929287401
 72
     1
 10
-2.862931607666785
 20
1.260399929287401
 11
-2.864480105377545
 21
1.260631489303066
 72
     1
 10
-2.864480105377545
 20
1.260631489303066
 11
-2.867040260792499
 21
1.261037187115205
 72
     1
 10
-2.867040260792499
 20
1.261037187115204
 11
-2.869451711515495
 21
1.261470336488862
 72
     1
 10
-2.869451711515493
 20
1.261470336488863
 11
-2.870129052359816
 21
1.261614235407204
 72
     1
 10
-2.870129052359816
 20
1.261614235407204
 11
-2.870802733940397
 21
1.261767769509207
 72
     1
 10
-2.870802733940397
 20
1.261767769509206
 11
-2.872942068641993
 21
1.262212829659202
 72
     1
 10
-2.872942068641993
 20
1.262212829659202
 11
-2.875632527634692
 21
1.262826109960668
 72
     1
 10
-2.875632527634692
 20
1.262826109960668
 11
-2.877495559525772
 21
1.263294647949162
 72
     1
 10
-2.877495559525772
 20
1.263294647949162
 11
-2.877998832511647
 21
1.263435125098054
 72
     1
 10
-2.877998832511647
 20
1.263435125098054
 11
-2.878569806268385
 21
1.263588420193867
 72
     1
 10
-2.878569806268387
 20
1.263588420193867
 11
-2.881433678198835
 21
1.264373656828263
 72
     1
 10
-2.881433678198835
 20
1.264373656828263
 11
-2.884291653186277
 21
1.265222917415295
 72
     1
 10
-2.884291653186277
 20
1.265222917415295
 11
-2.885432820205101
 21
1.265582751775276
 72
     1
 10
-2.885432820205101
 20
1.265582751775275
 11
-2.885765213029213
 21
1.265696819800465
 72
     1
 10
-2.885765213029213
 20
1.265696819800465
 11
-2.886986626008557
 21
1.266100309705249
 72
     1
 10
-2.886986626008557
 20
1.266100309705249
 11
-2.890012087565605
 21
1.267130858621246
 72
     1
 10
-2.890012087565605
 20
1.267130858621246
 11
-2.893032836833377
 21
1.268230591315008
 72
     1
 10
-2.893032836833375
 20
1.268230591315008
 11
-2.893259081129276
 21
1.268318324317968
 72
     1
 10
-2.893259081129276
 20
1.268318324317967
 11
-2.893433191656191
 21
1.268388531011824
 72
     1
 10
-2.893433191656189
 20
1.268388531011824
 11
-2.895503456983874
 21
1.269195383204491
 72
     1
 10
-2.895503456983876
 20
1.269195383204491
 11
-2.898663706695201
 21
1.270483089651271
 72
     1
 10
-2.898663706695201
 20
1.270483089651271
 11
-2.900925618798506
 21
1.27145100592717
 72
     1
 10
-2.900925618798506
 20
1.27145100592717
 11
-2.901067976258136
 21
1.27151032153535
 72
     1
 10
-2.901067976258136
 20
1.27151032153535
 11
-2.904101759208565
 21
1.272867662111999
 72
     1
 10
-2.904101759208565
 20
1.272867662112
 11
-2.907336870059074
 21
1.274393378494713
 72
     1
 10
-2.907336870059072
 20
1.274393378494713
 11
-2.908674179531827
 21
1.275043977148334
 72
     1
 10
-2.908674179531828
 20
1.275043977148333
 11
-2.908678397510954
 21
1.275051369419805
 72
     1
 10
-2.908678397510954
 20
1.275051369419806
 11
-2.896477564619996
 21
1.278068177852953
 72
     1
 10
-2.896477564619996
 20
1.278068177852953
 11
-2.849517057847197
 21
1.293743297095906
 72
     1
 10
-2.849517057847197
 20
1.293743297095906
 11
-2.809456579880945
 21
1.3142727061095
 72
     1
 10
-2.809456579880947
 20
1.3142727061095
 11
-2.800985344405805
 21
1.319840343983677
 72
     1
 10
-2.800985344405804
 20
1.319840343983677
 11
-2.79607386480216
 21
1.323324191461443
 72
     1
 10
-2.79607386480216
 20
1.323324191461444
 11
-2.793865062385465
 21
1.324956751853591
 72
     1
 10
-2.793865062385465
 20
1.324956751853591
 11
-2.793858823490934
 21
1.324964086160354
 72
     1
 10
-2.793858823490934
 20
1.324964086160354
 11
-2.793120893286491
 21
1.32552067117532
 72
     1
 10
-2.793120893286491
 20
1.32552067117532
 11
-2.789361919459842
 21
1.32843064581967
 72
     1
 10
-2.789361919459842
 20
1.32843064581967
 11
-2.785697086116179
 21
1.331401169432385
 72
     1
 10
-2.785697086116178
 20
1.331401169432385
 11
-2.784933430258272
 21
1.332038997354325
 72
     1
 10
-2.784933430258272
 20
1.332038997354324
 11
-2.784701429491461
 21
1.332232071116113
 72
     1
 10
-2.784701429491461
 20
1.332232071116114
 11
-2.782850233771162
 21
1.333802550747878
 72
     1
 10
-2.782850233771162
 20
1.333802550747878
 11
-2.779410830733596
 21
1.336826431840796
 72
     1
 10
-2.779410830733596
 20
1.336826431840796
 11
-2.776533394163241
 21
1.339471745527736
 72
     1
 10
-2.776533394163241
 20
1.339471745527736
 11
-2.776400209739483
 21
1.339598371365493
 72
     1
 10
-2.776400209739485
 20
1.339598371365493
 11
-2.776263418703265
 21
1.33972499720325
 72
     1
 10
-2.776263418703264
 20
1.339724997203249
 11
-2.770857809871458
 21
1.345012368119364
 72
     1
 10
-2.770857809871458
 20
1.345012368119364
 11
-2.764475985035122
 21
1.351839471848241
 72
     1
 10
-2.764475985035122
 20
1.351839471848242
 11
-2.761028564983519
 21
1.355840097678663
 72
     1
 10
-2.761028564983519
 20
1.355840097678663
 11
-2.760793946305057
 21
1.356132151735074
 72
     1
 10
-2.760793946305057
 20
1.356132151735074
 11
-2.760325054343713
 21
1.356700792787502
 72
     1
 10
-2.760325054343711
 20
1.356700792787503
 11
-2.757844361861998
 21
1.359775666239505
 72
     1
 10
-2.757844361861998
 20
1.359775666239504
 11
-2.755434643301459
 21
1.362896451604909
 72
     1
 10
-2.755434643301457
 20
1.362896451604909
 11
-2.754267065995282
 21
1.364470878368903
 72
     1
 10
-2.754267065995282
 20
1.364470878368903
 11
-2.753509179807299
 21
1.36553508264121
 72
     1
 10
-2.753509179807299
 20
1.36553508264121
 11
-2.752348711971585
 21
1.36715646952557
 72
     1
 10
-2.752348711971585
 20
1.36715646952557
 11
-2.750621696514194
 21
1.369627975446315
 72
     1
 10
-2.750621696514194
 20
1.369627975446315
 11
-2.748982222144729
 21
1.372065644561567
 72
     1
 10
-2.748982222144727
 20
1.372065644561567
 11
-2.748110675133629
 21
1.373392103958233
 72
     1
 10
-2.748110675133629
 20
1.373392103958233
 11
-2.747249579400984
 21
1.374733411014965
 72
     1
 10
-2.747249579400984
 20
1.374733411014965
 11
-2.745975333451513
 21
1.37677839868112
 72
     1
 10
-2.745975333451513
 20
1.37677839868112
 11
-2.744561512504262
 21
1.379133254973472
 72
     1
 10
-2.744561512504262
 20
1.379133254973472
 11
-2.743365494479675
 21
1.381181691678637
 72
     1
 10
-2.743365494479675
 20
1.381181691678636
 11
-2.742515471173689
 21
1.382656067591987
 72
     1
 10
-2.742515471173687
 20
1.382656067591987
 11
-2.741676387522826
 21
1.384146804033956
 72
     1
 10
-2.741676387522826
 20
1.384146804033956
 11
-2.740376707539692
 21
1.386581266158653
 72
     1
 10
-2.740376707539692
 20
1.386581266158653
 11
-2.739118358808873
 21
1.389036894096639
 72
     1
 10
-2.739118358808873
 20
1.389036894096639
 11
-2.738209663172609
 21
1.390831639188334
 72
     1
 10
-2.738209663172609
 20
1.390831639188334
 11
-2.737471185621931
 21
1.39227707074655
 72
     1
 10
-2.737471185621931
 20
1.39227707074655
 11
-2.736504725166467
 21
1.394298146900991
 72
     1
 10
-2.736504725166469
 20
1.394298146900991
 11
-2.735027591622365
 21
1.397577142067452
 72
     1
 10
-2.735027591622364
 20
1.397577142067452
 11
-2.733604978475426
 21
1.400886069484798
 72
     1
 10
-2.733604978475426
 20
1.400886069484798
 11
-2.73327308973009
 21
1.401640187621441
 72
     1
 10
-2.73327308973009
 20
1.401640187621442
 11
-2.732975225999762
 21
1.402297443573528
 72
     1
 10
-2.73297522599976
 20
1.402297443573528
 11
-2.730970820675686
 21
1.407202505901198
 72
     1
 10
-2.730970820675686
 20
1.407202505901198
 11
-2.724285785871
 21
1.423590666653672
 72
     1
 10
-2.724285785871
 20
1.423590666653673
 11
-2.728226603769165
 21
1.429942227872363
 72
     1
 10
-2.728226603769165
 20
1.429942227872362
 11
-2.904554923385392
 21
1.429942227872362
 72
     1
 10
-2.904554923385392
 20
1.429942227872362
 11
-2.906727638212856
 21
1.425281357161967
 72
     1
 10
-2.906727638212856
 20
1.425281357161967
 11
-2.909278884411868
 21
1.417396977392561
 72
     1
 10
-2.90927888441187
 20
1.417396977392561
 11
-2.910049939113974
 21
1.415074677459531
 72
     1
 10
-2.910049939113974
 20
1.415074677459532
 11
-2.91079970291668
 21
1.413129227271542
 72
     1
 10
-2.91079970291668
 20
1.413129227271541
 11
-2.911508628390883
 21
1.411477621497567
 72
     1
 10
-2.911508628390883
 20
1.411477621497568
 11
-2.911772985943521
 21
1.410914057526535
 72
     1
 10
-2.911772985943521
 20
1.410914057526534
 11
-2.912043556346826
 21
1.410349967042733
 72
     1
 10
-2.912043556346826
 20
1.410349967042733
 11
-2.912668588970774
 21
1.409089862343529
 72
     1
 10
-2.912668588970772
 20
1.40908986234353
 11
-2.913390164576014
 21
1.407722997439247
 72
     1
 10
-2.913390164576014
 20
1.407722997439247
 11
-2.913970710076892
 21
1.406671886350212
 72
     1
 10
-2.913970710076892
 20
1.406671886350212
 11
-2.914398262556524
 21
1.405922677438828
 72
     1
 10
-2.914398262556524
 20
1.405922677438829
 11
-2.914891004370439
 21
1.405103917586681
 72
     1
 10
-2.914891004370439
 20
1.405103917586681
 11
-2.915636858051028
 21
1.403940173579814
 72
     1
 10
-2.915636858051026
 20
1.403940173579814
 11
-2.916419778230508
 21
1.402783168936378
 72
     1
 10
-2.91641977823051
 20
1.402783168936378
 11
-2.918946133056095
 21
1.399334544917604
 72
     1
 10
-2.918946133056095
 20
1.399334544917603
 11
-2.922231056764379
 21
1.395434953820428
 72
     1
 10
-2.922231056764378
 20
1.395434953820428
 11
-2.924270350584109
 21
1.393276080312056
 72
     1
 10
-2.924270350584109
 20
1.393276080312056
 11
-2.924558778827247
 21
1.392982556528259
 72
     1
 10
-2.924558778827247
 20
1.39298255652826
 11
-2.925330949174576
 21
1.392212774164059
 72
     1
 10
-2.925330949174577
 20
1.392212774164059
 11
-2.929666789430061
 21
1.388288843887076
 72
     1
 10
-2.929666789430061
 20
1.388288843887076
 11
-2.934511056740333
 21
1.384485169126392
 72
     1
 10
-2.934511056740333
 20
1.384485169126392
 11
-2.949261347007121
 21
1.375516113723019
 72
     1
 10
-2.949261347007119
 20
1.375516113723018
 11
-2.971012297644705
 21
1.366899602813949
 72
     1
 10
-2.971012297644707
 20
1.36689960281395
 11
-2.985609041849837
 21
1.363176319703294
 72
     1
 10
-2.985609041849837
 20
1.363176319703293
 11
-2.985566461941093
 21
1.363133739794547
 72
     1
 10
-2.985566461941093
 20
1.363133739794547
 11
-2.986436111233578
 21
1.362924735942323
 72
     1
 10
-2.986436111233576
 20
1.362924735942323
 11
-2.997726326235103
 21
1.360984005128186
 72
     1
 10
-2.997726326235103
 20
1.360984005128186
 11
-3.009855328727937
 21
1.359598955889797
 72
     1
 10
-3.009855328727937
 20
1.359598955889797
 11
-3.013238314866553
 21
1.359346399249398
 72
     1
 10
-3.013238314866553
 20
1.359346399249398
 11
-3.013275392153323
 21
1.359390891993522
 72
     1
 10
-3.013275392153323
 20
1.359390891993522
 11
-3.015816075871452
 21
1.362065553431709
 72
     1
 10
-3.015816075871452
 20
1.36206555343171
 11
-3.022377834634983
 21
1.369058230371519
 72
     1
 10
-3.022377834634983
 20
1.369058230371519
 11
-3.028701720312621
 21
1.37590984326238
 72
     1
 10
-3.028701720312623
 20
1.375909843262379
 11
-3.029709326636002
 21
1.377005836105354
 72
     1
 10
-3.029709326636002
 20
1.377005836105355
 11
-3.034049220136875
 21
1.381774577601895
 72
     1
 10
-3.034049220136875
 20
1.381774577601895
 11
-3.040293642248302
 21
1.388692626911738
 72
     1
 10
-3.0402936422483
 20
1.388692626911738
 11
-3.044608819357449
 21
1.393513926741794
 72
     1
 10
-3.044608819357449
 20
1.393513926741794
 11
-3.045150375336284
 21
1.394127840347953
 72
     1
 10
-3.045150375336284
 20
1.394127840347953
 11
-3.045690983592134
 21
1.394744649774338
 72
     1
 10
-3.045690983592134
 20
1.394744649774337
 11
-3.051931315840622
 21
1.401766161869549
 72
     1
 10
-3.051931315840624
 20
1.401766161869549
 11
-3.058232962282104
 21
1.408910440432386
 72
     1
 10
-3.058232962282104
 20
1.408910440432386
 11
-3.060751863634262
 21
1.411781538877988
 72
     1
 10
-3.060751863634262
 20
1.411781538877989
 11
-3.061161189835884
 21
1.412248955821044
 72
     1
 10
-3.061161189835885
 20
1.412248955821044
 11
-3.063388021698749
 21
1.414791223724703
 72
     1
 10
-3.063388021698749
 20
1.414791223724703
 11
-3.069997547125595
 21
1.422348326055518
 72
     1
 10
-3.069997547125593
 20
1.422348326055518
 11
-3.076631002557761
 21
1.429944495633747
 72
     1
 10
-3.076631002557761
 20
1.429944495633747
 11
-3.088660036564419
 21
1.443702276222898
 72
     1
 10
-3.088660036564419
 20
1.443702276222897
 11
-3.107240590607457
 21
1.464952228345364
 72
     1
 10
-3.107240590607455
 20
1.464952228345364
 11
-3.135221028013331
 21
1.49687596422761
 72
     1
 10
-3.135221028013331
 20
1.49687596422761
 11
-3.177248655940486
 21
1.542682584294743
 72
     1
 10
-3.177248655940486
 20
1.542682584294743
 11
-3.20854022521039
 21
1.573143667235575
 72
     1
 10
-3.20854022521039
 20
1.573143667235575
 11
-3.20857604643413
 21
1.573107846011832
 72
     1
 10
-3.20857604643413
 20
1.573107846011832
 11
-3.212306767151041
 21
1.576474691100015
 72
     1
 10
-3.212306767151041
 20
1.576474691100015
 11
-3.21645733629829
 21
1.580151143952527
 72
     1
 10
-3.21645733629829
 20
1.580151143952527
 11
-3.243062747674711
 21
1.60104097452529
 72
     1
 10
-3.243062747674711
 20
1.60104097452529
 11
-3.288024663301655
 21
1.62497412749288
 72
     1
 10
-3.288024663301655
 20
1.62497412749288
 11
-3.346269717078797
 21
1.628645881116637
 72
     1
 10
-3.346269717078799
 20
1.628645881116636
 11
-3.477172433107433
 21
1.555037589167969
 72
     1
 10
-3.477172433107433
 20
1.555037589167969
 11
-3.598317551256052
 21
1.447654003314804
 72
     1
 10
-3.598317551256052
 20
1.447654003314803
 11
-3.616263967256269
 21
1.429732674204051
 72
     1
 10
-3.616263967256267
 20
1.429732674204051
 11
-3.621410527806926
 21
1.424499738509181
 72
     1
 10
-3.621410527806926
 20
1.424499738509181
 11
-3.625541812723849
 21
1.417040674284277
 72
     1
 10
-3.625541812723849
 20
1.417040674284277
 11
-3.62894311084892
 21
1.407171823612247
 72
     1
 10
-3.62894311084892
 20
1.407171823612247
 11
-3.636503400313982
 21
1.385248236386583
 72
     1
 10
-3.636503400313982
 20
1.385248236386583
 11
-3.662866242254048
 21
1.308844790152367
 72
     1
 10
-3.662866242254048
 20
1.308844790152367
 11
-3.676427452743702
 21
1.269537801388683
 72
     1
 10
-3.676427452743702
 20
1.269537801388683
 11
-3.629554477521761
 21
1.268325837517646
 72
     1
 10
-3.629554477521761
 20
1.268325837517645
 11
-3.527119882126976
 21
1.268325837517645
 72
     1
 10
-3.527119882126974
 20
1.268325837517645
 11
-3.50373510976177
 21
1.268453961090199
 72
     1
 10
-3.503735109761771
 20
1.2684539610902
 11
-3.503339564709836
 21
1.269601121474489
 72
     1
 10
-3.503339564709836
 20
1.269601121474489
 11
-3.500621920519996
 21
1.27748625042741
 72
     1
 10
-3.500621920519996
 20
1.27748625042741
 11
-3.45201143853975
 21
1.418386625337106
 72
     1
 10
-3.452011438539749
 20
1.418386625337106
 11
-3.400374350561742
 21
1.568060966972927
 72
     1
 10
-3.400374350561744
 20
1.568060966972927
 11
-3.35583858353069
 21
1.581787905266012
 72
     1
 10
-3.355838583530688
 20
1.581787905266012
 11
-3.259787104176373
 21
1.581787905266012
 72
     1
 10
-3.259787104176373
 20
1.581787905266012
 11
-3.231194272613373
 21
1.57901358193825
 72
     1
 10
-3.231194272613373
 20
1.57901358193825
 11
-3.222861603691153
 21
1.571982500722379
 72
     1
 10
-3.222861603691153
 20
1.571982500722379
 11
-3.216587045570484
 21
1.563031772836207
 72
     1
 10
-3.216587045570484
 20
1.563031772836207
 11
-3.238294180403185
 21
1.529959142866513
 72
     1
 10
-3.238294180403185
 20
1.529959142866513
 11
-3.25545751004476
 21
1.493596124002098
 72
     1
 10
-3.25545751004476
 20
1.493596124002098
 11
-3.271444586749879
 21
1.430629718202341
 72
     1
 10
-3.271444586749877
 20
1.430629718202341
 11
-3.265654866700682
 21
1.366690700690971
 72
     1
 10
-3.265654866700682
 20
1.366690700690971
 11
-3.230183275440964
 21
1.311882958853855
 72
     1
 10
-3.230183275440964
 20
1.311882958853856
 11
-3.156836932530794
 21
1.273173203465905
 72
     1
 10
-3.156836932530792
 20
1.273173203465905
 11
-3.05198734253952
 21
1.260519191703092
 72
     1
 10
-3.05198734253952
 20
1.260519191703092
 11
-3.044749244996559
 21
1.260553114985165
 72
     1
 10
-3.044749244996559
 20
1.260553114985165
 11
-3.037584148448937
 21
1.26064858760986
 72
     1
 10
-3.037584148448939
 20
1.26064858760986
 11
-3.034072709911391
 21
1.260719046405144
 72
     1
 10
-3.03407270991139
 20
1.260719046405144
 11
-3.03235599454117
 21
1.260769739682435
 72
     1
 10
-3.03235599454117
 20
1.260769739682435
 11
-3.029476357685361
 21
1.260845666516597
 72
     1
 10
-3.029476357685361
 20
1.260845666516597
 11
-3.02417436762699
 21
1.260992054777645
 72
     1
 10
-3.02417436762699
 20
1.260992054777645
 11
-3.01891913190245
 21
1.261182248901024
 72
     1
 10
-3.01891913190245
 20
1.261182248901024
 11
-3.016769024086432
 21
1.261275393321651
 72
     1
 10
-3.016769024086432
 20
1.261275393321651
 11
-3.014715838034607
 21
1.261374846511685
 72
     1
 10
-3.014715838034607
 20
1.261374846511685
 11
-3.010914735773237
 21
1.261555090701115
 72
     1
 10
-3.010914735773239
 20
1.261555090701115
 11
-3.006086071073111
 21
1.261810845566461
 72
     1
 10
-3.006086071073111
 20
1.26181084556646
 11
-3.002053612550744
 21
1.262050480787618
 72
     1
 10
-3.002053612550744
 20
1.262050480787618
 11
-3.000018864106598
 21
1.262182807534956
 72
     1
 10
-3.000018864106598
 20
1.262182807534956
 11
-2.997989117533753
 21
1.262318977825504
 72
     1
 10
-2.997989117533753
 20
1.262318977825504
 11
-2.993425049139116
 21
1.262649024184593
 72
     1
 10
-2.993425049139116
 20
1.262649024184593
 11
-2.988692995828685
 21
1.263008412058999
 72
     1
 10
-2.988692995828683
 20
1.263008412058999
 11
-2.985635912335098
 21
1.263264516443856
 72
     1
 10
-2.985635912335098
 20
1.263264516443856
 11
-2.983787583062692
 21
1.263433754956519
 72
     1
 10
-2.983787583062692
 20
1.263433754956519
 11
-2.981253976783762
 21
1.263669863880457
 72
     1
 10
-2.981253976783762
 20
1.263669863880457
 11
-2.976421203995936
 21
1.264134481530626
 72
     1
 10
-2.976421203995936
 20
1.264134481530626
 11
-2.971635606752158
 21
1.264633111905633
 72
     1
 10
-2.971635606752158
 20
1.264633111905633
 11
-2.969661316728679
 21
1.26484846741657
 72
     1
 10
-2.969661316728679
 20
1.26484846741657
 11
-2.968074084735581
 21
1.265022577943485
 72
     1
 10
-2.968074084735579
 20
1.265022577943485
 11
-2.964646342967595
 21
1.265427908593364
 72
     1
 10
-2.964646342967597
 20
1.265427908593364
 11
-2.959627393533981
 21
1.266057204382761
 72
     1
 10
-2.959627393533979
 20
1.266057204382761
 11
-2.955345266541471
 21
1.266620067440227
 72
     1
 10
-2.955345266541471
 20
1.266620067440226
 11
-2.95413626779608
 21
1.26677834973742
 72
     1
 10
-2.95413626779608
 20
1.266778349737421
 11
-2.952927374353244
 21
1.266936632034616
 72
     1
 10
-2.952927374353244
 20
1.266936632034616
 11
-2.948192511778932
 21
1.2676243675949
 72
     1
 10
-2.94819251177893
 20
1.2676243675949
 11
-2.942816381597943
 21
1.268453927587664
 72
     1
 10
-2.942816381597943
 20
1.268453927587663
 11
-2.939752243570007
 21
1.268948348016474
 72
     1
 10
-2.939752243570007
 20
1.268948348016474
 11
-2.939081740146082
 21
1.269051912755987
 72
     1
 10
-2.939081740146082
 20
1.269051912755987
 11
-2.937681054703798
 21
1.269283592897749
 72
     1
 10
-2.937681054703798
 20
1.269283592897749
 11
-2.93169989879836
 21
1.270330976536222
 72
     1
 10
-2.93169989879836
 20
1.270330976536222
 11
-2.925792454680493
 21
1.271432275082178
 72
     1
 10
-2.925792454680493
 20
1.271432275082178
 11
-2.898710795380814
 21
1.259238201668736
 72
     1
 10
-2.898710795380814
 20
1.259238201668736
 11
-2.865066189150763
 21
1.250160303595409
 72
     1
 10
-2.865066189150763
 20
1.250160303595409
 11
-2.82822882504135
 21
1.249999999671172
 72
     1
 10
-2.82822882504135
 20
1.249999999671173
 11
-2.786452668266827
 21
1.261215075946966
 72
     1
 10
-2.786452668266825
 20
1.261215075946965
 11
-2.746485880416685
 21
1.279639294630458
 72
     1
 10
-2.746485880416685
 20
1.279639294630458
 11
-2.613145922855583
 21
1.279639294630458
 72
     1
 10
-2.613145922855583
 20
1.279639294630458
 11
-2.594454433056029
 21
1.31793571822684
 72
     1
 10
-2.594454433056029
 20
1.31793571822684
 11
-2.558929741467288
 21
1.414552507175485
 72
     1
 10
-2.55892974146729
 20
1.414552507175485
 11
-2.548426628927476
 21
1.443117549766672
 72
     1
 10
-2.548426628927476
 20
1.443117549766672
 11
-2.543239138932639
 21
1.457223330641519
 72
     1
 10
-2.543239138932641
 20
1.457223330641519
 11
-2.539918021102449
 21
1.466255028026703
 72
     1
 10
-2.539918021102447
 20
1.466255028026703
 11
-2.539922355772478
 21
1.466252007317937
 72
     1
 10
-2.539922355772478
 20
1.466252007317937
 11
-2.539918639349096
 21
1.466259440164702
 72
     1
 10
-2.539918639349096
 20
1.466259440164702
 11
-2.554712749158046
 21
1.450524447531027
 72
     1
 10
-2.554712749158046
 20
1.450524447531027
 11
-2.64297774384968
 21
1.366958539969747
 72
     1
 10
-2.64297774384968
 20
1.366958539969747
 11
-2.765628997862245
 21
1.281820202025699
 97
        0
 92
        1
 93
       42
 72
     1
 10
-3.065417024072841
 20
1.401356140230605
 11
-3.046144081068643
 21
1.379666621492079
 72
     1
 10
-3.046144081068643
 20
1.379666621492079
 11
-3.026928965154548
 21
1.358721970746525
 72
     1
 10
-3.026928965154549
 20
1.358721970746525
 11
-3.029449090390393
 21
1.358639876931221
 72
     1
 10
-3.029449090390393
 20
1.35863987693122
 11
-3.031997096544625
 21
1.358585664034321
 72
     1
 10
-3.031997096544625
 20
1.358585664034322
 11
-3.040099824319462
 21
1.35884124549394
 72
     1
 10
-3.040099824319462
 20
1.358841245493939
 11
-3.047577774751276
 21
1.359609621677804
 72
     1
 10
-3.047577774751276
 20
1.359609621677805
 11
-3.054439514816358
 21
1.36089324029343
 72
     1
 10
-3.054439514816358
 20
1.36089324029343
 11
-3.060693611491021
 21
1.362694549048327
 72
     1
 10
-3.060693611491021
 20
1.362694549048327
 11
-3.066348376782022
 21
1.365016029645953
 72
     1
 10
-3.066348376782022
 20
1.365016029645953
 11
-3.071410388903309
 21
1.367860945696321
 72
     1
 10
-3.071410388903309
 20
1.367860945696321
 11
-3.075886787001808
 21
1.371233342716021
 72
     1
 10
-3.075886787001806
 20
1.371233342716021
 11
-3.079784914200054
 21
1.375137300217575
 72
     1
 10
-3.079784914200054
 20
1.375137300217575
 11
-3.083142689893591
 21
1.379617696694253
 72
     1
 10
-3.083142689893591
 20
1.379617696694253
 11
-3.084569666077211
 21
1.382005635494595
 72
     1
 10
-3.084569666077211
 20
1.382005635494594
 11
-3.085881618182147
 21
1.384545896949267
 72
     1
 10
-3.085881618182149
 20
1.384545896949267
 11
-3.086202248743806
 21
1.385272349767696
 72
     1
 10
-3.086202248743806
 20
1.385272349767696
 11
-3.086513585666004
 21
1.386008096225619
 72
     1
 10
-3.086513585666004
 20
1.386008096225619
 11
-3.087338396168817
 21
1.387955113694239
 72
     1
 10
-3.087338396168817
 20
1.387955113694239
 11
-3.088093504375619
 21
1.389948599360199
 72
     1
 10
-3.088093504375619
 20
1.389948599360199
 11
-3.088387802958774
 21
1.390837690869302
 72
     1
 10
-3.088387802958774
 20
1.390837690869303
 11
-3.088663514262927
 21
1.391745369657379
 72
     1
 10
-3.088663514262927
 20
1.391745369657379
 11
-3.089268375298416
 21
1.393757442602289
 72
     1
 10
-3.089268375298416
 20
1.393757442602289
 11
-3.089803534037812
 21
1.395815983744533
 72
     1
 10
-3.089803534037812
 20
1.395815983744533
 11
-3.090014964335686
 21
1.396708173133486
 72
     1
 10
-3.090014964335686
 20
1.396708173133486
 11
-3.090212454174409
 21
1.397600362522463
 72
     1
 10
-3.090212454174409
 20
1.397600362522463
 11
-3.090664744628536
 21
1.399868010552804
 72
     1
 10
-3.090664744628536
 20
1.399868010552804
 11
-3.091042685966922
 21
1.402172833140846
 72
     1
 10
-3.091042685966922
 20
1.402172833140846
 11
-3.091158856460271
 21
1.402916324298532
 72
     1
 10
-3.091158856460271
 20
1.402916324298532
 11
-3.09126573331415
 21
1.403659815455822
 72
     1
 10
-3.09126573331415
 20
1.403659815455821
 11
-3.091591785165498
 21
1.406447907296326
 72
     1
 10
-3.091591785165498
 20
1.406447907296326
 11
-3.091829547441911
 21
1.409273173694743
 72
     1
 10
-3.091829547441909
 20
1.409273173694743
 11
-3.091852007070622
 21
1.409601548955963
 72
     1
 10
-3.091852007070622
 20
1.409601548955963
 11
-3.091879113519066
 21
1.409929924217185
 72
     1
 10
-3.091879113519066
 20
1.409929924217185
 11
-3.092076459937407
 21
1.4167920722335
 72
     1
 10
-3.092076459937409
 20
1.4167920722335
 11
-3.091859378877234
 21
1.423802918481322
 72
     1
 10
-3.091859378877234
 20
1.423802918481321
 11
-3.09125953755451
 21
1.43089637485778
 72
     1
 10
-3.09125953755451
 20
1.43089637485778
 11
-3.089139844264568
 21
1.428473684138131
 72
     1
 10
-3.089139844264568
 20
1.428473684138132
 11
-3.087359182942432
 21
1.426438203613292
 72
     1
 10
-3.087359182942432
 20
1.426438203613291
 11
-3.085993389686162
 21
1.424876773050453
 72
     1
 10
-3.08599338968616
 20
1.424876773050453
 11
-3.085118300593821
 21
1.423876232216809
 72
     1
 10
-3.085118300593821
 20
1.423876232216809
 11
-3.084809751763472
 21
1.423523420879551
 72
     1
 10
-3.084809751763472
 20
1.423523420879551
 11
-3.065417024072843
 21
1.401356140230605
 97
        0
 75
     2
 76
     1
 98
        1
 10
-4.077909478073088
 20
0.214098746544829
450
        0
451
        0
460
0.0
461
0.0
452
        0
462
0.0
453
        0
470

  0
MTEXT
  5
E14
330
284
100
AcDbEntity
  8
0
100
AcDbMText
 10
-2.446783247329219
 20
1.687481308802325
 30
0.0
 40
0.125
 41
0.2960640206524797
 46
0.1827628344066295
 71
     1
 72
     1
  1
®
 73
     1
 44
1.0
  0
ENDBLK
  5
33D
330
284
100
AcDbEntity
  8
0
100
AcDbBlockEnd
  0
BLOCK
  5
24D
330
244
100
AcDbEntity
  8
0
100
AcDbBlockBegin
  2
REVISE12
 70
     2
 10
0.0
 20
0.0
 30
0.0
  3
REVISE12
  1

  0
ATTDEF
  5
245
330
244
100
AcDbEntity
  8
0
100
AcDbText
 10
0.03125
 20
0.0625000000000009
 30
0.0
 40
0.125
  1

 41
0.9
 72
     5
 11
0.21875
 21
0.0625000000000009
 31
0.0
100
AcDbAttributeDefinition
280
     0
  3
REVISION NO.
  2
NO
 70
     8
280
     0
  0
ATTDEF
  5
246
330
244
100
AcDbEntity
  8
0
100
AcDbText
 10
0.3125
 20
0.0625000000000009
 30
0.0
 40
0.125
  1

100
AcDbAttributeDefinition
280
     0
  3
REVISION
  2
REV
 70
     8
280
     0
  0
ATTDEF
  5
247
330
244
100
AcDbEntity
  8
0
100
AcDbText
 10
2.8125
 20
0.0625000000000009
 30
0.0
 40
0.125
  1

 41
1.125
 72
     5
 11
3.46875
 21
0.0625000000000009
 31
0.0
100
AcDbAttributeDefinition
280
     0
  3
REVISION DATE
  2
RDATE
 70
     8
280
     0
  0
ATTDEF
  5
248
330
244
100
AcDbEntity
  8
0
100
AcDbText
 10
3.53125
 20
0.0625000000000009
 30
0.0
 40
0.125
  1

100
AcDbAttributeDefinition
280
     0
  3
REVISION BY
  2
BY
 70
     8
280
     0
  0
LINE
  5
249
330
244
100
AcDbEntity
  8
0
100
AcDbLine
 10
0.0
 20
0.0
 30
0.0
 11
0.0
 21
0.2500000000000009
 31
0.0
  0
LINE
  5
24A
330
244
100
AcDbEntity
  8
0
100
AcDbLine
 10
0.25
 20
0.2500000000000009
 30
0.0
 11
0.25
 21
0.0000000000000009
 31
0.0
  0
LINE
  5
24B
330
244
100
AcDbEntity
  8
0
100
AcDbLine
 10
2.75
 20
0.2500000000000009
 30
0.0
 11
2.75
 21
0.0000000000000009
 31
0.0
  0
LINE
  5
24C
330
244
100
AcDbEntity
  8
0
100
AcDbLine
 10
3.5
 20
0.2500000000000009
 30
0.0
 11
3.5
 21
0.0000000000000009
 31
0.0
  0
ENDBLK
  5
24E
330
244
100
AcDbEntity
  8
0
100
AcDbBlockEnd
  0
BLOCK
  5
D19
330
D18
100
AcDbEntity
  8
0
100
AcDbBlockBegin
  2
*U6
 70
     1
 10
0.0
 20
0.0
 30
0.0
  3
*U6
  1

  0
ENDBLK
  5
D1A
330
D18
100
AcDbEntity
  8
0
100
AcDbBlockEnd
  0
BLOCK
  5
D51
330
D4F
100
AcDbEntity
  8
0
100
AcDbBlockBegin
  2
GENAXEH
 70
     0
 10
0.0
 20
0.0
 30
0.0
  3
GENAXEH
  1

  0
LINE
  5
D50
330
D4F
100
AcDbEntity
  8
0
100
AcDbLine
 10
-1.0
 20
0.0
 30
0.0
 11
1.0
 21
0.0
 31
0.0
  0
ENDBLK
  5
D52
330
D4F
100
AcDbEntity
  8
0
100
AcDbBlockEnd
  0
BLOCK
  5
D5E
330
D5D
100
AcDbEntity
  8
0
100
AcDbBlockBegin
  2
_ACMFILLEDHALF
 70
     0
 10
0.0
 20
0.0
 30
0.0
  3
_ACMFILLEDHALF
  1

  0
TRACE
  5
D60
330
D5D
100
AcDbEntity
  8
NOTES
 62
     0
100
AcDbTrace
 10
-0.8
 20
0.0
 30
0.0
 11
-1.0
 21
0.166666666
 31
0.0
 12
0.0
 22
0.0
 32
0.0
 13
0.0
 23
0.0
 33
0.0
  0
LINE
  5
D61
330
D5D
100
AcDbEntity
  8
NOTES
 62
     0
100
AcDbLine
 10
-1.0
 20
0.0
 30
0.0
 11
-0.8
 21
0.0
 31
0.0
  0
ENDBLK
  5
D5F
330
D5D
100
AcDbEntity
  8
0
100
AcDbBlockEnd
  0
ENDSEC
  0
SECTION
  2
ENTITIES
  0
LINE
  5
25
330
2
100
AcDbEntity
  8
0
  6
HIDDEN
 62
     7
100
AcDbLine
 10
70.829065323704
 20
71.3517995479475
 30
0.0
 11
85.77521270399056
 21
71.3517995479475
 31
0.0
  0
LINE
  5
28
330
2
100
AcDbEntity
  8
0
  6
HIDDEN
 62
     7
100
AcDbLine
 10
74.27244127199
 20
68.81647347953633
 30
0.0
 11
85.77521270399056
 21
68.81647347953633
 31
0.0
  0
LINE
  5
29
330
2
100
AcDbEntity
  8
0
  6
HIDDEN
 62
     7
100
AcDbLine
 10
77.58550203967714
 20
66.28110264000078
 30
0.0
 11
85.77521270399056
 21
66.28110264000078
 31
0.0
  0
LINE
  5
2A
330
2
100
AcDbEntity
  8
0
  6
HIDDEN
 62
     7
100
AcDbLine
 10
51.80773896466654
 20
43.92223063058288
 30
0.0
 11
58.51110699290185
 21
43.92156822389125
 31
0.0
  0
LINE
  5
2B
330
2
100
AcDbEntity
  8
0
  6
HIDDEN
 62
     7
100
AcDbLine
 10
48.49378231646765
 20
40.53724335437666
 30
0.0
 11
58.51111693914111
 21
40.53626765358974
 31
0.0
  0
LINE
  5
2C
330
2
100
AcDbEntity
  8
0
  6
HIDDEN
 62
     7
100
AcDbLine
 10
45.05130268676285
 20
37.14954783776053
 30
0.0
 11
58.51112689324005
 21
37.14829196523927
 31
0.0
  0
LWPOLYLINE
  5
2D
330
2
100
AcDbEntity
  8
0
 62
     7
100
AcDbPolyline
 90
        2
 70
     0
 43
0.2064648301956726
 10
5.642235809054308
 20
60.42070023872962
 10
125.0550627138451
 20
60.42070023872962
  0
TEXT
  5
134
330
2
100
AcDbEntity
  8
0
 62
     7
100
AcDbText
 10
39.22092651469961
 20
49.68211299887423
 30
0.0
 40
1.228957322593289
  1
GRD
 41
0.8
100
AcDbText
  0
TEXT
  5
135
330
2
100
AcDbEntity
  8
0
 62
     7
100
AcDbText
 10
58.06374932483567
 20
33.92079303412855
 30
0.0
 40
1.491311410534142
  1
KTRMG
 41
0.8
  7
MASTER
100
AcDbText
  0
LINE
  5
136
330
2
100
AcDbEntity
  8
0
 62
     7
100
AcDbLine
 10
39.52018123431363
 20
52.61489696461724
 30
0.0
 11
40.61568274791833
 21
52.61489696461724
 31
0.0
  0
LINE
  5
137
330
2
100
AcDbEntity
  8
0
  6
HIDDEN
 62
     7
100
AcDbLine
 10
40.61568274791833
 20
52.61489696461724
 30
0.0
 11
40.61568274791833
 21
60.41081631961815
 31
0.0
  0
LINE
  5
138
330
2
100
AcDbEntity
  8
0
 62
     7
100
AcDbLine
 10
41.44281156621903
 20
52.18792043484644
 30
0.0
 11
40.61568274791833
 21
52.18792043484644
 31
0.0
  0
LINE
  5
139
330
2
100
AcDbEntity
  8
0
 62
     7
100
AcDbLine
 10
41.17443887091494
 20
51.76094390507568
 30
0.0
 11
40.61568274791833
 21
51.76094390507568
 31
0.0
  0
LINE
  5
13A
330
2
100
AcDbEntity
  8
0
 62
     7
100
AcDbLine
 10
39.78855392961767
 20
52.18792043484644
 30
0.0
 11
40.61568274791833
 21
52.18792043484644
 31
0.0
  0
LINE
  5
13B
330
2
100
AcDbEntity
  8
0
 62
     7
100
AcDbLine
 10
40.05692662492165
 20
51.76094390507568
 30
0.0
 11
40.61568274791833
 21
51.76094390507568
 31
0.0
  0
LINE
  5
13C
330
2
100
AcDbEntity
  8
0
 62
     7
100
AcDbLine
 10
41.71118426152302
 20
52.61489696461724
 30
0.0
 11
40.61568274791833
 21
52.61489696461724
 31
0.0
  0
TEXT
  5
13F
330
2
100
AcDbEntity
  8
0
 62
     7
100
AcDbText
 10
63.30410189369203
 20
76.28155538225278
 30
0.0
 40
1.461835629170989
  1
 INTO SINEWAVE FILTER
  7
SIMPLEX
100
AcDbText
  0
TEXT
  5
140
330
2
100
AcDbEntity
  8
0
 62
     7
100
AcDbText
 10
63.30410189369203
 20
78.80585605335237
 30
0.0
 40
1.461835629170989
  1
CUSTOMER CONNECTIONS 
  7
SIMPLEX
100
AcDbText
  0
LINE
  5
143
330
2
100
AcDbEntity
  8
0
  6
HIDDEN
 62
     7
100
AcDbLine
 10
36.62372261585481
 20
76.68307385293956
 30
0.0
 11
51.80773896466652
 21
76.68307385293956
 31
0.0
  0
LINE
  5
144
330
2
100
AcDbEntity
  8
0
  6
HIDDEN
 62
     7
100
AcDbLine
 10
36.62372261585472
 20
74.14774778452835
 30
0.0
 11
48.49378231646773
 21
74.14774778452835
 31
0.0
  0
LINE
  5
145
330
2
100
AcDbEntity
  8
0
  6
HIDDEN
 62
     7
100
AcDbLine
 10
36.62372261585481
 20
71.61237694499281
 30
0.0
 11
45.05130268676278
 21
71.61237694499281
 31
0.0
  0
TEXT
  5
146
330
2
100
AcDbEntity
  8
0
  6
HIDDEN
 62
     7
100
AcDbText
 10
64.65531857532423
 20
44.23007301867746
 30
0.0
 40
1.213923347459433
  1
T1
 41
0.8
  7
MASTER
100
AcDbText
  0
TEXT
  5
148
330
2
100
AcDbEntity
  8
0
  6
HIDDEN
 62
     7
100
AcDbText
 10
64.65269287500729
 20
37.3995261325056
 30
0.0
 40
1.213923347459433
  1
T3
 41
0.8
  7
MASTER
100
AcDbText
  0
TEXT
  5
149
330
2
100
AcDbEntity
  8
0
  6
HIDDEN
 62
     7
100
AcDbText
 10
64.56198483768158
 20
40.83540999237761
 30
0.0
 40
1.213923347459433
  1
T2
 41
0.8
  7
MASTER
100
AcDbText
  0
CIRCLE
  5
14D
330
2
100
AcDbEntity
  8
0
  6
HIDDEN
 62
     7
100
AcDbCircle
 10
36.16920070935438
 20
74.14774778452836
 30
0.0
 40
0.3177416030396291
  0
CIRCLE
  5
14E
330
2
100
AcDbEntity
  8
0
  6
HIDDEN
 62
     7
100
AcDbCircle
 10
36.16920070935438
 20
71.61237694499281
 30
0.0
 40
0.3177416030396291
  0
CIRCLE
  5
14F
330
2
100
AcDbEntity
  8
0
  6
HIDDEN
 62
     7
100
AcDbCircle
 10
36.16920070935438
 20
76.68307385293956
 30
0.0
 40
0.3177416030396291
  0
ARC
  5
150
330
2
100
AcDbEntity
  8
0
  6
HIDDEN
 62
     7
100
AcDbCircle
 10
60.23818996403854
 20
40.53626765358974
 30
0.0
 40
0.5756910082991619
100
AcDbArc
 50
0.0
 51
180.0
  0
ARC
  5
151
330
2
100
AcDbEntity
  8
0
  6
HIDDEN
 62
     7
100
AcDbCircle
 10
60.23819991813748
 20
37.14829196523927
 30
0.0
 40
0.5756910082991619
100
AcDbArc
 50
0.0
 51
180.0
  0
ARC
  5
152
330
2
100
AcDbEntity
  8
0
  6
HIDDEN
 62
     7
100
AcDbCircle
 10
59.08681790153921
 20
37.14829196523927
 30
0.0
 40
0.5756910082991619
100
AcDbArc
 50
0.0
 51
180.0
  0
ARC
  5
153
330
2
100
AcDbEntity
  8
0
  6
HIDDEN
 62
     7
100
AcDbCircle
 10
59.08680794744026
 20
40.53626765358974
 30
0.0
 40
0.5756910082991619
100
AcDbArc
 50
0.0
 51
180.0
  0
ARC
  5
154
330
2
100
AcDbEntity
  8
0
  6
HIDDEN
 62
     7
100
AcDbCircle
 10
61.38958193473577
 20
37.14829196523927
 30
0.0
 40
0.5756910082991619
100
AcDbArc
 50
0.0
 51
180.0
  0
ARC
  5
155
330
2
100
AcDbEntity
  8
0
  6
HIDDEN
 62
     7
100
AcDbCircle
 10
62.54096395133406
 20
37.14829196523927
 30
0.0
 40
0.5756910082991619
100
AcDbArc
 50
0.0
 51
180.0
  0
ARC
  5
156
330
2
100
AcDbEntity
  8
0
  6
HIDDEN
 62
     7
100
AcDbCircle
 10
61.38957198063684
 20
40.53626765358974
 30
0.0
 40
0.5756910082991619
100
AcDbArc
 50
0.0
 51
180.0
  0
ARC
  5
157
330
2
100
AcDbEntity
  8
0
  6
HIDDEN
 62
     7
100
AcDbCircle
 10
62.54095399723513
 20
40.53626765358974
 30
0.0
 40
0.5756910082991619
100
AcDbArc
 50
359.9999999999986
 51
180.0
  0
ARC
  5
158
330
2
100
AcDbEntity
  8
0
  6
HIDDEN
 62
     7
100
AcDbCircle
 10
60.23818001779925
 20
43.92156822389125
 30
0.0
 40
0.5756910082991619
100
AcDbArc
 50
0.0
 51
180.0
  0
ARC
  5
159
330
2
100
AcDbEntity
  8
0
  6
HIDDEN
 62
     7
100
AcDbCircle
 10
59.08679800120101
 20
43.92156822389125
 30
0.0
 40
0.5756910082991619
100
AcDbArc
 50
0.0
 51
180.0
  0
ARC
  5
15A
330
2
100
AcDbEntity
  8
0
  6
HIDDEN
 62
     7
100
AcDbCircle
 10
62.54094405099594
 20
43.92156822389125
 30
0.0
 40
0.5756910082991619
100
AcDbArc
 50
0.0
 51
180.0
  0
ARC
  5
15B
330
2
100
AcDbEntity
  8
0
  6
HIDDEN
 62
     7
100
AcDbCircle
 10
61.38956203439764
 20
43.92156822389125
 30
0.0
 40
0.5756910082991619
100
AcDbArc
 50
0.0
 51
180.0
  0
TEXT
  5
15C
330
2
100
AcDbEntity
  8
0
  6
HIDDEN
 62
     7
100
AcDbText
 10
56.12653935544712
 20
40.78632835062672
 30
0.0
 40
1.213923347459433
  1
V
 41
0.8
  7
MASTER
100
AcDbText
  0
TEXT
  5
15D
330
2
100
AcDbEntity
  8
0
  6
HIDDEN
 62
     7
100
AcDbText
 10
56.19268853898097
 20
37.3504444907547
 30
0.0
 40
1.213923347459433
  1
W
 41
0.8
  7
MASTER
100
AcDbText
  0
TEXT
  5
15E
330
2
100
AcDbEntity
  8
0
  6
HIDDEN
 62
     7
100
AcDbText
 10
56.1953142392979
 20
44.18099137692658
 30
0.0
 40
1.213923347459433
  1
U
 41
0.8
  7
MASTER
100
AcDbText
  0
LINE
  5
163
330
2
100
AcDbEntity
  8
0
  6
HIDDEN
 62
     7
100
AcDbLine
 10
70.82906532370405
 20
50.80463212742791
 30
0.0
 11
70.82906532370403
 21
43.92015697533945
 31
0.0
  0
TEXT
  5
183
330
2
100
AcDbEntity
  8
0
 62
     7
100
AcDbText
 10
101.3318791533565
 20
27.40306820819037
 30
0.0
 40
1.204211960679758
  1
ON CAPACITORS
 41
0.8
100
AcDbText
  0
TEXT
  5
185
330
2
100
AcDbEntity
  8
0
 62
     7
100
AcDbText
 10
101.4420992532265
 20
29.34074118184998
 30
0.0
 40
1.204211960679758
  1
BLEEDER RESISTORS
 41
0.8
100
AcDbText
  0
LINE
  5
186
330
2
100
AcDbEntity
  8
0
  6
Continuous
 62
     7
100
AcDbLine
 10
120.8219650771908
 20
37.14574292718358
 30
0.0
 11
104.4564137019884
 21
37.14574292718358
 31
0.0
  0
LINE
  5
187
330
2
100
AcDbEntity
  8
0
  6
Continuous
 62
     7
100
AcDbLine
 10
104.1576634347405
 20
40.53305090205864
 30
0.0
 11
120.8219650771908
 21
40.53305090205864
 31
0.0
  0
LINE
  5
188
330
2
100
AcDbEntity
  8
0
  6
Continuous
 62
     7
100
AcDbLine
 10
104.1576634347406
 20
43.92037581350175
 30
0.0
 11
120.8219650771908
 21
43.92037581350175
 31
0.0
  0
LINE
  5
1AD
330
2
100
AcDbEntity
  8
0
 62
     7
100
AcDbLine
 10
98.91879742866532
 20
43.20660914731362
 30
0.0
 11
99.74298418238983
 21
44.63414247968993
 31
0.0
  0
LINE
  5
1AF
330
2
100
AcDbEntity
  8
0
 62
     7
100
AcDbLine
 10
98.53629102508667
 20
44.63414247968993
 30
0.0
 11
98.91879742866532
 21
43.20660914731362
 31
0.0
  0
LINE
  5
1B0
330
2
100
AcDbEntity
  8
0
 62
     7
100
AcDbLine
 10
103.3630636542996
 20
44.63414247968993
 30
0.0
 11
103.7455700578783
 21
43.20660914731362
 31
0.0
  0
LINE
  5
1B1
330
2
100
AcDbEntity
  8
0
 62
     7
100
AcDbLine
 10
101.3321837432718
 20
43.20660914731362
 30
0.0
 11
102.1563704969963
 21
44.63414247968993
 31
0.0
  0
LINE
  5
1B2
330
2
100
AcDbEntity
  8
0
 62
     7
100
AcDbLine
 10
99.74298418238983
 20
44.63414247968993
 30
0.0
 11
100.1254905859686
 21
43.20660914731362
 31
0.0
  0
LINE
  5
1B3
330
2
100
AcDbEntity
  8
0
 62
     7
100
AcDbLine
 10
100.9496773396931
 20
44.63414247968993
 30
0.0
 11
101.3321837432718
 21
43.20660914731362
 31
0.0
  0
LINE
  5
1B4
330
2
100
AcDbEntity
  8
0
 62
     7
100
AcDbLine
 10
100.1254905859686
 20
43.20660914731362
 30
0.0
 11
100.9496773396931
 21
44.63414247968993
 31
0.0
  0
LINE
  5
1B5
330
2
100
AcDbEntity
  8
0
 62
     7
100
AcDbLine
 10
102.5388769005751
 20
43.20660914731362
 30
0.0
 11
103.3630636542996
 21
44.63414247968993
 31
0.0
  0
LINE
  5
1B6
330
2
100
AcDbEntity
  8
0
 62
     7
100
AcDbLine
 10
102.1563704969963
 20
44.63414247968993
 30
0.0
 11
102.5388769005751
 21
43.20660914731362
 31
0.0
  0
LINE
  5
1B7
330
2
100
AcDbEntity
  8
0
 62
     7
100
AcDbLine
 10
103.7455700578783
 20
43.20660914731362
 30
0.0
 11
104.1576634347406
 21
43.92037581350175
 31
0.0
  0
LINE
  5
1B9
330
2
100
AcDbEntity
  8
0
 62
     7
100
AcDbLine
 10
91.88158680882139
 20
37.14574292718358
 30
0.0
 11
98.42294791547223
 21
37.14574292718359
 31
0.0
  0
LINE
  5
1BA
330
2
100
AcDbEntity
  8
0
 62
     7
100
AcDbLine
 10
98.12419764822443
 20
40.53305090205864
 30
0.0
 11
91.88158680882137
 21
40.53305090205864
 31
0.0
  0
LINE
  5
1D5
330
2
100
AcDbEntity
  8
0
 62
     7
100
AcDbLine
 10
99.74298418238983
 20
41.24681756824685
 30
0.0
 11
100.1254905859686
 21
39.81928423587054
 31
0.0
  0
LINE
  5
1D6
330
2
100
AcDbEntity
  8
0
 62
     7
100
AcDbLine
 10
99.21754769591309
 20
36.43197626099547
 30
0.0
 11
100.0417344496376
 21
37.85950959337177
 31
0.0
  0
LINE
  5
1D7
330
2
100
AcDbEntity
  8
0
 62
     7
100
AcDbLine
 10
98.83504129233443
 20
37.85950959337177
 30
0.0
 11
99.21754769591309
 21
36.43197626099547
 31
0.0
  0
LINE
  5
1D8
330
2
100
AcDbEntity
  8
0
 62
     7
100
AcDbLine
 10
98.42294791547219
 20
37.14574292718358
 30
0.0
 11
98.83504129233443
 21
37.85950959337177
 31
0.0
  0
LINE
  5
1D9
330
2
100
AcDbEntity
  8
0
 62
     7
100
AcDbLine
 10
98.91879742866532
 20
39.81928423587054
 30
0.0
 11
99.74298418238983
 21
41.24681756824685
 31
0.0
  0
LINE
  5
1DA
330
2
100
AcDbEntity
  8
0
 62
     7
100
AcDbLine
 10
98.12419764822443
 20
40.53305090205864
 30
0.0
 11
98.53629102508667
 21
41.24681756824685
 31
0.0
  0
LINE
  5
1DB
330
2
100
AcDbEntity
  8
0
 62
     7
100
AcDbLine
 10
98.53629102508667
 20
41.24681756824685
 30
0.0
 11
98.91879742866532
 21
39.81928423587054
 31
0.0
  0
LINE
  5
1DC
330
2
100
AcDbEntity
  8
0
 62
     7
100
AcDbLine
 10
102.8376271678228
 20
36.43197626099547
 30
0.0
 11
103.6618139215474
 21
37.85950959337177
 31
0.0
  0
LINE
  5
1DD
330
2
100
AcDbEntity
  8
0
 62
     7
100
AcDbLine
 10
102.4551207642441
 20
37.85950959337177
 30
0.0
 11
102.8376271678228
 21
36.43197626099547
 31
0.0
  0
LINE
  5
1DE
330
2
100
AcDbEntity
  8
0
 62
     7
100
AcDbLine
 10
101.2484276069409
 20
37.85950959337177
 30
0.0
 11
101.6309340105195
 21
36.43197626099547
 31
0.0
  0
LINE
  5
1DF
330
2
100
AcDbEntity
  8
0
 62
     7
100
AcDbLine
 10
101.6309340105195
 20
36.43197626099547
 30
0.0
 11
102.4551207642441
 21
37.85950959337177
 31
0.0
  0
LINE
  5
1E0
330
2
100
AcDbEntity
  8
0
 62
     7
100
AcDbLine
 10
100.0417344496376
 20
37.85950959337177
 30
0.0
 11
100.4242408532163
 21
36.43197626099547
 31
0.0
  0
LINE
  5
1E1
330
2
100
AcDbEntity
  8
0
 62
     7
100
AcDbLine
 10
100.4242408532163
 20
36.43197626099547
 30
0.0
 11
101.2484276069409
 21
37.85950959337177
 31
0.0
  0
LINE
  5
1E2
330
2
100
AcDbEntity
  8
0
 62
     7
100
AcDbLine
 10
104.044320325126
 20
36.43197626099547
 30
0.0
 11
104.4564137019883
 21
37.14574292718358
 31
0.0
  0
LINE
  5
1E3
330
2
100
AcDbEntity
  8
0
 62
     7
100
AcDbLine
 10
103.6618139215474
 20
37.85950959337177
 30
0.0
 11
104.044320325126
 21
36.43197626099547
 31
0.0
  0
LINE
  5
1E4
330
2
100
AcDbEntity
  8
0
 62
     7
100
AcDbLine
 10
102.5388769005751
 20
39.81928423587054
 30
0.0
 11
103.3630636542996
 21
41.24681756824685
 31
0.0
  0
LINE
  5
1E5
330
2
100
AcDbEntity
  8
0
 62
     7
100
AcDbLine
 10
102.1563704969963
 20
41.24681756824685
 30
0.0
 11
102.5388769005751
 21
39.81928423587054
 31
0.0
  0
LINE
  5
1E6
330
2
100
AcDbEntity
  8
0
 62
     7
100
AcDbLine
 10
100.9496773396931
 20
41.24681756824685
 30
0.0
 11
101.3321837432718
 21
39.81928423587054
 31
0.0
  0
LINE
  5
1E7
330
2
100
AcDbEntity
  8
0
 62
     7
100
AcDbLine
 10
101.3321837432718
 20
39.81928423587054
 30
0.0
 11
102.1563704969963
 21
41.24681756824685
 31
0.0
  0
LINE
  5
1E8
330
2
100
AcDbEntity
  8
0
 62
     7
100
AcDbLine
 10
100.1254905859686
 20
39.81928423587054
 30
0.0
 11
100.9496773396931
 21
41.24681756824685
 31
0.0
  0
LINE
  5
1E9
330
2
100
AcDbEntity
  8
0
 62
     7
100
AcDbLine
 10
103.3630636542996
 20
41.24681756824685
 30
0.0
 11
103.7455700578783
 21
39.81928423587054
 31
0.0
  0
LINE
  5
1EA
330
2
100
AcDbEntity
  8
0
 62
     7
100
AcDbLine
 10
103.7455700578783
 20
39.81928423587054
 30
0.0
 11
104.1576634347406
 21
40.53305090205864
 31
0.0
  0
LINE
  5
1EB
330
2
100
AcDbEntity
  8
0
 62
     7
100
AcDbLine
 10
91.88158680882137
 20
43.92037581350175
 30
0.0
 11
98.12419764822443
 21
43.92037581350175
 31
0.0
  0
TEXT
  5
1EC
330
2
100
AcDbEntity
  8
0
 62
     7
100
AcDbText
 10
95.86787004314237
 20
55.10736830037881
 30
0.0
 40
1.528054810979431
  1
%%UPOWER SCHEMATIC
 41
0.8
100
AcDbText
  0
TEXT
  5
1FC
330
2
100
AcDbEntity
  8
0
 62
     7
100
AcDbText
 10
98.77872478298217
 20
48.16783237013044
 30
0.0
 40
1.294770642400231
  1
POWER
 41
0.8
100
AcDbText
  0
TEXT
  5
1FD
330
2
100
AcDbEntity
  8
0
 62
     7
100
AcDbText
 10
97.41629647136667
 20
46.44339401930918
 30
0.0
 40
1.294770642400231
  1
RESISTORS
 41
0.8
100
AcDbText
  0
LINE
  5
1FE
330
2
100
AcDbEntity
  8
0
 62
     7
100
AcDbLine
 10
98.12419764822443
 20
43.92037581350175
 30
0.0
 11
98.53629102508667
 21
44.63414247968993
 31
0.0
  0
TEXT
  5
1FF
330
2
100
AcDbEntity
  8
0
 62
     7
100
AcDbText
 10
102.8015891235796
 20
75.40654891664925
 30
0.0
 40
1.528054810979431
  1
%%UCUSTOMER
 41
0.8
100
AcDbText
  0
TEXT
  5
200
330
2
100
AcDbEntity
  8
0
 62
     7
100
AcDbText
 10
102.8920755185278
 20
72.55162721452489
 30
0.0
 40
1.528054810979431
  1
%%UCONNECTIONS
 41
0.8
100
AcDbText
  0
CIRCLE
  5
201
330
2
100
AcDbEntity
  8
0
  6
HIDDEN
 62
     7
100
AcDbCircle
 10
86.09295430703019
 20
66.28110264000075
 30
0.0
 40
0.3177416030396291
  0
CIRCLE
  5
202
330
2
100
AcDbEntity
  8
0
  6
HIDDEN
 62
     7
100
AcDbCircle
 10
86.09295430703019
 20
68.81647347953634
 30
0.0
 40
0.3177416030396291
  0
CIRCLE
  5
203
330
2
100
AcDbEntity
  8
0
  6
HIDDEN
 62
     7
100
AcDbCircle
 10
86.09295430703019
 20
71.3517995479475
 30
0.0
 40
0.3177416030396291
  0
TEXT
  5
204
330
2
100
AcDbEntity
  8
0
  6
HIDDEN
 62
     7
100
AcDbText
 10
88.213926871524
 20
69.30908840601505
 30
0.0
 40
1.491311410534142
  1
TO
 41
0.8
  7
MASTER
100
AcDbText
  0
TEXT
  5
205
330
2
100
AcDbEntity
  8
0
 62
     7
100
AcDbText
 10
88.213926871524
 20
66.89458421753123
 30
0.0
 40
1.491311410534142
  1
LOAD
 41
0.8
  7
MASTER
100
AcDbText
  0
LINE
  5
206
330
2
100
AcDbEntity
  8
0
 62
     7
100
AcDbLine
 10
111.8086904650823
 20
39.97270567139009
 30
0.0
 11
111.8086904650823
 21
43.92039275006974
 31
0.0
  0
LINE
  5
207
330
2
100
AcDbEntity
  8
0
 62
     7
100
AcDbLine
 10
110.0154252587861
 20
43.02831772829165
 30
0.0
 11
110.0154252587861
 21
43.92037581350175
 31
0.0
  0
LEADER
  5
20C
330
2
100
AcDbEntity
  8
0
 62
     7
100
AcDbLeader
  3
STANDARD
 76
     3
 10
110.1855720088516
 20
37.47618754975933
 30
0.0
 10
118.8909301289097
 20
29.96776650246386
 30
0.0
 10
117.687523321736
 20
29.96776650246386
 30
0.0
211
-1.0
221
0.0
231
0.0
1001
ACAD
1000
DSTYLE
1002
{
1070
     5
1000

1070
    40
1040
10.66599999999999
1070
   140
1040
0.125
1070
   176
1070
   256
1070
   177
1070
   256
1070
   178
1070
   256
1002
}
  0
LINE
  5
20D
330
2
100
AcDbEntity
  8
0
 62
     7
100
AcDbLine
 10
110.3723085918802
 20
41.61557788255727
 30
0.0
 11
109.658541925692
 21
42.02767125941955
 31
0.0
  0
LINE
  5
20E
330
2
100
AcDbEntity
  8
0
 62
     7
100
AcDbLine
 10
109.658541925692
 20
41.42432468076795
 30
0.0
 11
110.3723085918802
 21
41.61557788255727
 31
0.0
  0
LINE
  5
20F
330
2
100
AcDbEntity
  8
0
 62
     7
100
AcDbLine
 10
109.658541925692
 20
42.63101783807115
 30
0.0
 11
110.3723085918802
 21
42.82227103986051
 31
0.0
  0
LINE
  5
210
330
2
100
AcDbEntity
  8
0
 62
     7
100
AcDbLine
 10
109.658541925692
 20
42.02767125941955
 30
0.0
 11
110.3723085918802
 21
42.21892446120889
 31
0.0
  0
LINE
  5
211
330
2
100
AcDbEntity
  8
0
 62
     7
100
AcDbLine
 10
110.3723085918802
 20
42.21892446120889
 30
0.0
 11
109.658541925692
 21
42.63101783807115
 31
0.0
  0
LINE
  5
213
330
2
100
AcDbEntity
  8
0
 62
     7
100
AcDbLine
 10
109.658541925692
 20
39.24370986319609
 30
0.0
 11
110.3723085918802
 21
39.43496306498543
 31
0.0
  0
LINE
  5
214
330
2
100
AcDbEntity
  8
0
 62
     7
100
AcDbLine
 10
110.0154252587861
 20
41.21827799233682
 30
0.0
 11
109.658541925692
 21
41.42432468076795
 31
0.0
  0
LINE
  5
215
330
2
100
AcDbEntity
  8
0
 62
     7
100
AcDbLine
 10
109.658541925692
 20
38.64036328454445
 30
0.0
 11
110.3723085918802
 21
38.83161648633381
 31
0.0
  0
LINE
  5
216
330
2
100
AcDbEntity
  8
0
 62
     7
100
AcDbLine
 10
109.658541925692
 20
38.03701670589287
 30
0.0
 11
110.3723085918802
 21
38.22826990768219
 31
0.0
  0
LINE
  5
217
330
2
100
AcDbEntity
  8
0
 62
     7
100
AcDbLine
 10
110.0154252587861
 20
37.83097001746174
 30
0.0
 11
109.658541925692
 21
38.03701670589287
 31
0.0
  0
LINE
  5
218
330
2
100
AcDbEntity
  8
0
 62
     7
100
AcDbLine
 10
110.3723085918802
 20
38.22826990768219
 30
0.0
 11
109.658541925692
 21
38.64036328454445
 31
0.0
  0
LINE
  5
21A
330
2
100
AcDbEntity
  8
0
 62
     7
100
AcDbLine
 10
110.3723085918802
 20
38.83161648633381
 30
0.0
 11
109.658541925692
 21
39.24370986319609
 31
0.0
  0
LINE
  5
21B
330
2
100
AcDbEntity
  8
0
 62
     7
100
AcDbLine
 10
112.1655737981763
 20
39.16331240430732
 30
0.0
 11
111.4518071319882
 21
39.57540578116958
 31
0.0
  0
LINE
  5
21D
330
2
100
AcDbEntity
  8
0
 62
     7
100
AcDbLine
 10
111.4518071319882
 20
38.36871262386637
 30
0.0
 11
112.1655737981763
 21
38.5599658256557
 31
0.0
  0
LINE
  5
21E
330
2
100
AcDbEntity
  8
0
 62
     7
100
AcDbLine
 10
111.8086904650823
 20
38.16266593543524
 30
0.0
 11
111.4518071319882
 21
38.36871262386637
 31
0.0
  0
LINE
  5
21F
330
2
100
AcDbEntity
  8
0
 62
     7
100
AcDbLine
 10
112.1655737981763
 20
38.5599658256557
 30
0.0
 11
111.4518071319882
 21
38.97205920251797
 31
0.0
  0
LINE
  5
220
330
2
100
AcDbEntity
  8
0
 62
     7
100
AcDbLine
 10
111.4518071319882
 20
38.97205920251797
 30
0.0
 11
112.1655737981763
 21
39.16331240430732
 31
0.0
  0
LINE
  5
221
330
2
100
AcDbEntity
  8
0
 62
     7
100
AcDbLine
 10
110.0154252587861
 20
37.14575986375158
 30
0.0
 11
110.0154252587861
 21
37.83097001746174
 31
0.0
  0
LINE
  5
222
330
2
100
AcDbEntity
  8
0
 62
     7
100
AcDbLine
 10
111.8086904650823
 20
37.14575986375158
 30
0.0
 11
111.8086904650823
 21
38.16266593543524
 31
0.0
  0
LINE
  5
223
330
2
100
AcDbEntity
  8
0
 62
     7
100
AcDbLine
 10
111.4518071319882
 20
39.57540578116958
 30
0.0
 11
112.1655737981763
 21
39.76665898295896
 31
0.0
  0
LINE
  5
224
330
2
100
AcDbEntity
  8
0
 62
     7
100
AcDbLine
 10
110.0154252587861
 20
39.64100975341658
 30
0.0
 11
110.0154252587861
 21
40.53306783862665
 31
0.0
  0
LINE
  5
225
330
2
100
AcDbEntity
  8
0
 62
     7
100
AcDbLine
 10
110.3723085918802
 20
39.43496306498543
 30
0.0
 11
110.0154252587861
 21
39.64100975341658
 31
0.0
  0
LINE
  5
226
330
2
100
AcDbEntity
  8
0
 62
     7
100
AcDbLine
 10
110.0154252587861
 20
40.53306783862665
 30
0.0
 11
110.0154252587861
 21
41.21827799233682
 31
0.0
  0
LINE
  5
227
330
2
100
AcDbEntity
  8
0
 62
     7
100
AcDbLine
 10
112.1655737981763
 20
39.76665898295896
 30
0.0
 11
111.8086904650823
 21
39.97270567139009
 31
0.0
  0
LINE
  5
228
330
2
100
AcDbEntity
  8
0
 62
     7
100
AcDbLine
 10
110.3723085918802
 20
42.82227103986051
 30
0.0
 11
110.0154252587861
 21
43.02831772829165
 31
0.0
  0
TEXT
  5
239
330
2
100
AcDbEntity
  8
0
 62
     7
100
AcDbText
 10
110.2175582167123
 20
44.82805759051885
 30
0.0
 40
1.294770642400231
  1
RB
 41
0.8
100
AcDbText
  0
INSERT
  5
23E
330
2
100
AcDbEntity
  8
0
 62
     7
100
AcDbBlockReference
 66
     1
  2
REVISE12
 10
62.0
 20
16.0
 30
0.0
 41
8.0
 42
8.0
 43
8.0
  0
ATTRIB
  5
23F
330
23E
100
AcDbEntity
  8
0
100
AcDbText
 10
62.25
 20
16.50000000000001
 30
0.0
 40
1.0
  1

 41
0.9
 72
     5
 11
63.75
 21
16.50000000000001
 31
0.0
100
AcDbAttribute
280
     0
  2
NO
 70
     8
280
     0
  0
ATTRIB
  5
240
330
23E
100
AcDbEntity
  8
0
100
AcDbText
 10
64.5
 20
16.50000000000001
 30
0.0
 40
1.0
  1

100
AcDbAttribute
280
     0
  2
REV
 70
     8
280
     0
  0
ATTRIB
  5
241
330
23E
100
AcDbEntity
  8
0
100
AcDbText
 10
84.50000000000001
 20
16.50000000000001
 30
0.0
 40
1.0
  1

 41
1.125
 72
     5
 11
89.74999999999999
 21
16.50000000000001
 31
0.0
100
AcDbAttribute
280
     0
  2
RDATE
 70
     8
280
     0
  0
ATTRIB
  5
242
330
23E
100
AcDbEntity
  8
0
100
AcDbText
 10
90.25
 20
16.50000000000001
 30
0.0
 40
1.0
  1

100
AcDbAttribute
280
     0
  2
BY
 70
     8
280
     0
  0
SEQEND
  5
24F
330
23E
100
AcDbEntity
  8
0
  0
INSERT
  5
250
330
2
100
AcDbEntity
  8
0
 62
     7
100
AcDbBlockReference
 66
     1
  2
REVISE12
 10
62.0
 20
14.0
 30
0.0
 41
8.0
 42
8.0
 43
8.0
  0
ATTRIB
  5
251
330
250
100
AcDbEntity
  8
0
100
AcDbText
 10
62.25
 20
14.50000000000001
 30
0.0
 40
1.0
  1

 41
0.9
 72
     5
 11
63.75
 21
14.50000000000001
 31
0.0
100
AcDbAttribute
280
     0
  2
NO
 70
     8
280
     0
  0
ATTRIB
  5
252
330
250
100
AcDbEntity
  8
0
100
AcDbText
 10
64.5
 20
14.50000000000001
 30
0.0
 40
1.0
  1

100
AcDbAttribute
280
     0
  2
REV
 70
     8
280
     0
  0
ATTRIB
  5
253
330
250
100
AcDbEntity
  8
0
100
AcDbText
 10
84.50000000000001
 20
14.50000000000001
 30
0.0
 40
1.0
  1

 41
1.125
 72
     5
 11
89.74999999999999
 21
14.50000000000001
 31
0.0
100
AcDbAttribute
280
     0
  2
RDATE
 70
     8
280
     0
  0
ATTRIB
  5
254
330
250
100
AcDbEntity
  8
0
100
AcDbText
 10
90.25
 20
14.50000000000001
 30
0.0
 40
1.0
  1

100
AcDbAttribute
280
     0
  2
BY
 70
     8
280
     0
  0
SEQEND
  5
255
330
250
100
AcDbEntity
  8
0
  0
INSERT
  5
256
330
2
100
AcDbEntity
  8
0
 62
     7
100
AcDbBlockReference
 66
     1
  2
REVISE12
 10
62.0
 20
12.0
 30
0.0
 41
8.0
 42
8.0
 43
8.0
  0
ATTRIB
  5
257
330
256
100
AcDbEntity
  8
0
100
AcDbText
 10
62.25
 20
12.50000000000001
 30
0.0
 40
1.0
  1

 41
2.25
 72
     5
 11
63.75
 21
12.50000000000001
 31
0.0
100
AcDbAttribute
280
     0
  2
NO
 70
     8
280
     0
  0
ATTRIB
  5
258
330
256
100
AcDbEntity
  8
0
100
AcDbText
 10
64.5
 20
12.50000000000001
 30
0.0
 40
1.0
  1

100
AcDbAttribute
280
     0
  2
REV
 70
     8
280
     0
  0
ATTRIB
  5
259
330
256
100
AcDbEntity
  8
0
100
AcDbText
 10
84.50000000000001
 20
12.50000000000001
 30
0.0
 40
1.0
  1

 41
0.8750000000000001
 72
     5
 11
89.74999999999999
 21
12.50000000000001
 31
0.0
100
AcDbAttribute
280
     0
  2
RDATE
 70
     8
280
     0
  0
ATTRIB
  5
25A
330
256
100
AcDbEntity
  8
0
100
AcDbText
 10
90.25
 20
12.50000000000001
 30
0.0
 40
1.0
  1

100
AcDbAttribute
280
     0
  2
BY
 70
     8
280
     0
  0
SEQEND
  5
25B
330
256
100
AcDbEntity
  8
0
  0
INSERT
  5
25C
330
2
100
AcDbEntity
  8
0
 62
     7
100
AcDbBlockReference
 66
     1
  2
REVISE12
 10
62.0
 20
10.0
 30
0.0
 41
8.0
 42
8.0
 43
8.0
  0
ATTRIB
  5
25D
330
25C
100
AcDbEntity
  8
0
100
AcDbText
 10
62.25
 20
10.5
 30
0.0
 40
1.0
  1

 41
2.25
 72
     5
 11
63.75
 21
10.5
 31
0.0
100
AcDbAttribute
280
     0
  2
NO
 70
     8
280
     0
  0
ATTRIB
  5
25E
330
25C
100
AcDbEntity
  8
0
100
AcDbText
 10
64.5
 20
10.5
 30
0.0
 40
1.0
  1

100
AcDbAttribute
280
     0
  2
REV
 70
     8
280
     0
  0
ATTRIB
  5
25F
330
25C
100
AcDbEntity
  8
0
100
AcDbText
 10
84.50000000000001
 20
10.5
 30
0.0
 40
1.0
  1

 41
0.8513513513513512
 72
     5
 11
89.74999999999999
 21
10.5
 31
0.0
100
AcDbAttribute
280
     0
  2
RDATE
 70
     8
280
     0
  0
ATTRIB
  5
260
330
25C
100
AcDbEntity
  8
0
100
AcDbText
 10
90.25
 20
10.5
 30
0.0
 40
1.0
  1

100
AcDbAttribute
280
     0
  2
BY
 70
     8
280
     0
  0
SEQEND
  5
261
330
25C
100
AcDbEntity
  8
0
  0
INSERT
  5
262
330
2
100
AcDbEntity
  8
0
 62
     7
100
AcDbBlockReference
 66
     1
  2
REVISE12
 10
62.0
 20
8.0
 30
0.0
 41
8.0
 42
8.0
 43
8.0
  0
ATTRIB
  5
263
330
262
100
AcDbEntity
  8
0
100
AcDbText
 10
62.25
 20
8.500000000000007
 30
0.0
 40
1.0
  1

 41
2.25
 72
     5
 11
63.75
 21
8.500000000000007
 31
0.0
100
AcDbAttribute
280
     0
  2
NO
 70
     8
280
     0
  0
ATTRIB
  5
264
330
262
100
AcDbEntity
  8
0
100
AcDbText
 10
64.5
 20
8.500000000000007
 30
0.0
 40
1.0
  1

100
AcDbAttribute
280
     0
  2
REV
 70
     8
280
     0
  0
ATTRIB
  5
265
330
262
100
AcDbEntity
  8
0
100
AcDbText
 10
84.50000000000001
 20
8.500000000000007
 30
0.0
 40
1.0
  1

 41
1.125
 72
     5
 11
89.74999999999999
 21
8.500000000000007
 31
0.0
100
AcDbAttribute
280
     0
  2
RDATE
 70
     8
280
     0
  0
ATTRIB
  5
266
330
262
100
AcDbEntity
  8
0
100
AcDbText
 10
90.25
 20
8.500000000000007
 30
0.0
 40
1.0
  1

100
AcDbAttribute
280
     0
  2
BY
 70
     8
280
     0
  0
SEQEND
  5
267
330
262
100
AcDbEntity
  8
0
  0
INSERT
  5
268
330
2
100
AcDbEntity
  8
0
 62
     7
100
AcDbBlockReference
 66
     1
  2
REVISE12
 10
62.0
 20
6.0
 30
0.0
 41
8.0
 42
8.0
 43
8.0
  0
ATTRIB
  5
269
330
268
100
AcDbEntity
  8
0
100
AcDbText
 10
62.25
 20
6.500000000000007
 30
0.0
 40
1.0
  1

 41
2.25
 72
     5
 11
63.75
 21
6.500000000000007
 31
0.0
100
AcDbAttribute
280
     0
  2
NO
 70
     8
280
     0
  0
ATTRIB
  5
26A
330
268
100
AcDbEntity
  8
0
100
AcDbText
 10
64.5
 20
6.500000000000007
 30
0.0
 40
1.0
  1

100
AcDbAttribute
280
     0
  2
REV
 70
     8
280
     0
  0
ATTRIB
  5
26B
330
268
100
AcDbEntity
  8
0
100
AcDbText
 10
84.50000000000001
 20
6.500000000000007
 30
0.0
 40
1.0
  1

 41
0.9545454545454543
 72
     5
 11
89.74999999999999
 21
6.500000000000007
 31
0.0
100
AcDbAttribute
280
     0
  2
RDATE
 70
     8
280
     0
  0
ATTRIB
  5
26C
330
268
100
AcDbEntity
  8
0
100
AcDbText
 10
90.25
 20
6.500000000000007
 30
0.0
 40
1.0
  1

100
AcDbAttribute
280
     0
  2
BY
 70
     8
280
     0
  0
SEQEND
  5
26D
330
268
100
AcDbEntity
  8
0
  0
INSERT
  5
26E
330
2
100
AcDbEntity
  8
0
 62
     7
100
AcDbBlockReference
  2
MASTER-BORDER
 10
0.0
 20
0.0
 30
0.0
 41
8.0
 42
8.0
 43
8.0
1001
PAPERSPACE
1002
{
1040
0.0
1002
}
1001
MASTER_SIZING
1002
{
1040
0.0
1010
17.0
1020
11.0
1030
8.0
1002
}
  0
INSERT
  5
275
330
2
100
AcDbEntity
  8
0
 62
     7
100
AcDbBlockReference
 66
     1
  2
TITLEB
 10
132.0
 20
4.0
 30
0.0
 41
8.0
 42
8.0
 43
8.0
1001
MASTER-TITLE
1002
{
1000
MGTITLE
1002
}
  0
ATTRIB
  5
276
330
275
100
AcDbEntity
  8
0
100
AcDbText
 10
121.75
 20
6.0
 30
0.0
 40
1.5
  1
26911
 41
0.8000000000000001
100
AcDbAttribute
280
     0
  2
DWGNO
 70
     0
280
     0
  0
ATTRIB
  5
277
330
275
100
AcDbEntity
  8
0
100
AcDbText
 10
105.25
 20
6.25
 30
0.0
 40
1.0
  1
DSW
 41
0.8
100
AcDbAttribute
280
     0
  2
DRNBY
 70
     0
280
     0
  0
ATTRIB
  5
278
330
275
100
AcDbEntity
  8
0
100
AcDbText
 10
112.0
 20
6.25
 30
0.0
 40
1.0
  1
1/24/09
 41
0.9324324324324326
 72
     5
 11
117.75
 21
6.25
 31
0.0
100
AcDbAttribute
280
     0
  2
DATE
 70
     0
280
     0
  0
ATTRIB
  5
279
330
275
100
AcDbEntity
  8
0
100
AcDbText
 10
104.75
 20
4.25
 30
0.0
 40
1.0
  1
1/8"=1"
 41
0.8
100
AcDbAttribute
280
     0
  2
SCALE
 70
     0
280
     0
  0
ATTRIB
  5
27A
330
275
100
AcDbEntity
  8
0
100
AcDbText
 10
112.75
 20
4.25
 30
0.0
 40
1.0
  1

 41
0.8
100
AcDbAttribute
280
     0
  2
APRVD
 70
     0
280
     0
  0
ATTRIB
  5
27B
330
275
100
AcDbEntity
  8
0
100
AcDbText
 10
126.75
 20
4.25
 30
0.0
 40
1.0
  1
1
 41
0.8
100
AcDbAttribute
280
     0
  2
SHT
 70
     0
280
     0
  0
ATTRIB
  5
27C
330
275
100
AcDbEntity
  8
0
100
AcDbText
 10
129.75
 20
4.25
 30
0.0
 40
1.0
  1
 1
 41
0.8
100
AcDbAttribute
280
     0
  2
OFSHT
 70
     0
280
     0
  0
ATTRIB
  5
27D
330
275
100
AcDbEntity
  8
0
100
AcDbText
 10
103.25
 20
11.0
 30
0.0
 40
1.5
  1
KMG SCHEMATIC DIAGRAM
 41
0.8000000000000001
100
AcDbAttribute
280
     0
  2
DESC1
 70
     0
280
     0
  0
ATTRIB
  5
27E
330
275
100
AcDbEntity
  8
0
100
AcDbText
 10
103.25
 20
8.75
 30
0.0
 40
1.5
  1
600 V. SINE WAVE FILTER
 41
0.8000000000000001
100
AcDbAttribute
280
     0
  2
DESC2
 70
     0
280
     0
  0
ATTRIB
  5
27F
330
275
100
AcDbEntity
  8
0
100
AcDbText
 10
98.25000000000001
 20
12.75
 30
0.0
 40
1.0
  1
NA
 41
0.8
100
AcDbAttribute
280
     0
  2
TOLXX
 70
     0
280
     0
  0
ATTRIB
  5
280
330
275
100
AcDbEntity
  8
0
100
AcDbText
 10
98.25000000000001
 20
10.75
 30
0.0
 40
1.0
  1
NA
 41
0.8
100
AcDbAttribute
280
     0
  2
TOLXXX
 70
     0
280
     0
  0
ATTRIB
  5
281
330
275
100
AcDbEntity
  8
0
100
AcDbText
 10
96.25
 20
7.75
 30
0.0
 40
1.0
  1
NA
 41
0.8
100
AcDbAttribute
280
     0
  2
TOLFRAC
 70
     0
280
     0
  0
ATTRIB
  5
282
330
275
100
AcDbEntity
  8
0
100
AcDbText
 10
96.25
 20
4.75
 30
0.0
 40
1.0
  1
NA
 41
0.8
100
AcDbAttribute
280
     0
  2
TOLANG
 70
     0
280
     0
  0
ATTRIB
  5
283
330
275
100
AcDbEntity
  8
0
100
AcDbText
 10
119.25
 20
4.75
 30
0.0
 40
2.0
  1
B
 41
0.8
100
AcDbAttribute
280
     0
  2
DWG.SIZE
 70
     0
280
     0
  0
SEQEND
  5
33E
330
275
100
AcDbEntity
  8
0
  0
LINE
  5
408
330
2
100
AcDbEntity
  8
0
  6
HIDDEN
 62
     7
100
AcDbLine
 10
51.80773896466654
 20
43.92223063058286
 30
0.0
 11
51.80773896466654
 21
50.80463212742791
 31
0.0
  0
LINE
  5
409
330
2
100
AcDbEntity
  8
0
  6
HIDDEN
 62
     7
100
AcDbLine
 10
48.49378231646767
 20
40.53724335437666
 30
0.0
 11
48.49378231646769
 21
50.80463212742791
 31
0.0
  0
LINE
  5
40A
330
2
100
AcDbEntity
  8
0
  6
HIDDEN
 62
     7
100
AcDbLine
 10
45.05130268676281
 20
37.14954783776053
 30
0.0
 11
45.05130268676279
 21
50.80463212742791
 31
0.0
  0
TEXT
  5
40B
330
2
100
AcDbEntity
  8
0
  6
HIDDEN
 62
     7
100
AcDbText
 10
36.81124833321678
 20
77.14753643107146
 30
0.0
 40
1.213923347459433
  1
U
 41
0.8
  7
MASTER
100
AcDbText
  0
TEXT
  5
40C
330
2
100
AcDbEntity
  8
0
  6
HIDDEN
 62
     7
100
AcDbText
 10
36.81124833321678
 20
74.54437007040027
 30
0.0
 40
1.213923347459433
  1
V
 41
0.8
  7
MASTER
100
AcDbText
  0
TEXT
  5
40D
330
2
100
AcDbEntity
  8
0
  6
HIDDEN
 62
     7
100
AcDbText
 10
36.81124833321678
 20
71.94120370972908
 30
0.0
 40
1.213923347459433
  1
W
 41
0.8
  7
MASTER
100
AcDbText
  0
TEXT
  5
416
330
2
100
AcDbEntity
  8
0
  6
HIDDEN
 62
     7
100
AcDbText
 10
83.47695160461233
 20
71.81626212607941
 30
0.0
 40
1.213923347459433
  1
T1
 41
0.8
  7
MASTER
100
AcDbText
  0
TEXT
  5
417
330
2
100
AcDbEntity
  8
0
  6
HIDDEN
 62
     7
100
AcDbText
 10
83.47695160461233
 20
69.21309576540824
 30
0.0
 40
1.213923347459433
  1
T2
 41
0.8
  7
MASTER
100
AcDbText
  0
TEXT
  5
418
330
2
100
AcDbEntity
  8
0
  6
HIDDEN
 62
     7
100
AcDbText
 10
83.47695160461233
 20
66.60992940473704
 30
0.0
 40
1.213923347459433
  1
T3
 41
0.8
  7
MASTER
100
AcDbText
  0
LINE
  5
41E
330
2
100
AcDbEntity
  8
0
 62
     7
100
AcDbLine
 10
63.11663505929509
 20
37.14779333730862
 30
0.0
 11
98.17032331937129
 21
37.14502908437469
 31
0.0
  0
LINE
  5
41F
330
2
100
AcDbEntity
  8
0
 62
     7
100
AcDbLine
 10
63.11663505929509
 20
40.53571200177327
 30
0.0
 11
93.3991152324752
 21
40.53305090205864
 31
0.0
  0
LINE
  5
420
330
2
100
AcDbEntity
  8
0
 62
     7
100
AcDbLine
 10
63.11663505929509
 20
43.92093244421454
 30
0.0
 11
97.87158912733874
 21
43.91743790563062
 31
0.0
  0
CIRCLE
  5
421
330
2
100
AcDbEntity
  8
0
 62
     7
100
AcDbCircle
 10
110.0154252587861
 20
37.14575986375158
 30
0.0
 40
0.2526256046537989
  0
CIRCLE
  5
422
330
2
100
AcDbEntity
  8
0
 62
     7
100
AcDbCircle
 10
111.8086904650823
 20
37.14575986375158
 30
0.0
 40
0.2526256046537989
  0
CIRCLE
  5
423
330
2
100
AcDbEntity
  8
0
 62
     7
100
AcDbCircle
 10
110.0154252587861
 20
40.53305090205864
 30
0.0
 40
0.2526256046537989
  0
CIRCLE
  5
424
330
2
100
AcDbEntity
  8
0
 62
     7
100
AcDbCircle
 10
110.0154252587861
 20
43.92037581350175
 30
0.0
 40
0.2526256046537989
  0
CIRCLE
  5
425
330
2
100
AcDbEntity
  8
0
 62
     7
100
AcDbCircle
 10
111.8086904650823
 20
43.92037581350175
 30
0.0
 40
0.2526256046537989
  0
CIRCLE
  5
42C
330
2
100
AcDbEntity
  8
0
 62
     7
100
AcDbCircle
 10
70.829065323704
 20
43.92025242690822
 30
0.0
 40
0.2526256046537989
  0
CIRCLE
  5
42D
330
2
100
AcDbEntity
  8
0
 62
     7
100
AcDbCircle
 10
74.2724412719901
 20
40.53485234267746
 30
0.0
 40
0.2526256046537989
  0
CIRCLE
  5
42E
330
2
100
AcDbEntity
  8
0
 62
     7
100
AcDbCircle
 10
77.58550203967708
 20
37.1467927979498
 30
0.0
 40
0.2526256046537989
  0
CIRCLE
  5
42F
330
2
100
AcDbEntity
  8
0
 62
     7
100
AcDbCircle
 10
104.1576634347406
 20
43.92037581350175
 30
0.0
 40
0.2526256046537989
  0
CIRCLE
  5
430
330
2
100
AcDbEntity
  8
0
 62
     7
100
AcDbCircle
 10
104.1576634347405
 20
40.53305090205864
 30
0.0
 40
0.2526256046537989
  0
CIRCLE
  5
431
330
2
100
AcDbEntity
  8
0
 62
     7
100
AcDbCircle
 10
104.4564137019884
 20
37.14574292718358
 30
0.0
 40
0.2526256046537989
  0
CIRCLE
  5
432
330
2
100
AcDbEntity
  8
0
 62
     7
100
AcDbCircle
 10
98.1241976482244
 20
43.92037581350175
 30
0.0
 40
0.2526256046537989
  0
CIRCLE
  5
433
330
2
100
AcDbEntity
  8
0
 62
     7
100
AcDbCircle
 10
98.12419764822438
 20
40.53305090205864
 30
0.0
 40
0.2526256046537989
  0
CIRCLE
  5
434
330
2
100
AcDbEntity
  8
0
 62
     7
100
AcDbCircle
 10
98.42294791547219
 20
37.14574292718358
 30
0.0
 40
0.2526256046537989
  0
LINE
  5
447
330
2
100
AcDbEntity
  8
0
  6
HIDDEN
 62
     7
100
AcDbLine
 10
74.2724412719901
 20
50.80463212742791
 30
0.0
 11
74.2724412719901
 21
40.53473167544072
 31
0.0
  0
MTEXT
  5
449
330
2
100
AcDbEntity
  8
0
100
AcDbMText
 10
-10.51699287439612
 20
87.47854103239333
 30
0.0
 40
1.0
 41
0.0
 46
0.0
 71
     1
 72
     1
  1
\P
  7
MASTER
 73
     1
 44
1.0
  0
MTEXT
  5
44A
330
2
100
AcDbEntity
  8
0
100
AcDbMText
 10
-560.1359429951688
 20
391.8283282591467
 30
0.0
 40
1.0
 41
0.0
 46
0.0
 71
     1
 72
     1
  1
\P
  7
MASTER
 73
     1
 44
1.0
  0
TEXT
  5
45F
330
2
100
AcDbEntity
  8
NOTES
100
AcDbText
 10
99.99158964908588
 20
69.13102076456837
 30
0.0
 40
1.0
  1
  
 41
0.8
  7
MASTER
100
AcDbText
  0
LWPOLYLINE
  5
5DA
330
2
100
AcDbEntity
  8
0
 62
     7
100
AcDbPolyline
 90
        4
 70
     1
 43
0.0
 10
35.84938138862881
 20
70.84368954805317
 10
23.64162442025555
 20
70.84368954805317
 10
23.64162442025555
 20
77.66596669564903
 10
35.84938138862881
 20
77.66596669564903
  0
TEXT
  5
5DE
330
2
100
AcDbEntity
  8
0
 62
     7
100
AcDbText
 10
92.20923388823621
 20
21.32321007321091
 30
0.0
 40
0.9
  1
CUSTOMER IS RESPONSIBLE FOR INSTALLATION
  7
MASTER
100
AcDbText
  0
TEXT
  5
5DF
330
2
100
AcDbEntity
  8
0
 62
     7
100
AcDbText
 10
92.20923388823621
 20
19.54554340654424
 30
0.0
 40
0.9
  1
TO MEET ALL NATIONAL AND LOCAL ELECTRICAL CODES
  7
MASTER
100
AcDbText
  0
TEXT
  5
5E3
330
2
100
AcDbEntity
  8
0
 62
     7
100
AcDbText
 10
101.8207589814563
 20
67.93385384992331
 30
0.0
 40
1.213923347459433
  1
USE COPPER WIRE
 41
0.8
  7
MASTER
100
AcDbText
  0
TEXT
  5
5E4
330
2
100
AcDbEntity
  8
0
 62
     7
100
AcDbText
 10
101.8207589814563
 20
65.91064827082425
 30
0.0
 40
1.213923347459433
  1
60%%DC MIN <100 A.
 41
0.8
  7
MASTER
100
AcDbText
  0
TEXT
  5
5E5
330
2
100
AcDbEntity
  8
0
 62
     7
100
AcDbText
 10
101.8207589814563
 20
63.53721543117207
 30
0.0
 40
1.213923347459433
  1
75%%DC MIN >100 A.
 41
0.8
  7
MASTER
100
AcDbText
  0
LINE
  5
5E6
330
2
100
AcDbEntity
  8
0
 62
     7
100
AcDbLine
 10
110.418016481687
 20
63.67013340944152
 30
0.0
 11
109.7322624291026
 21
63.21335174091614
 31
0.0
  0
LINE
  5
611
330
2
100
AcDbEntity
  8
0
  6
HIDDEN
 62
     7
100
AcDbLine
 10
48.49378231646768
 20
40.53724335437667
 30
0.0
 11
48.49378231646773
 21
74.14774778452835
 31
0.0
  0
LINE
  5
612
330
2
100
AcDbEntity
  8
0
  6
HIDDEN
 62
     7
100
AcDbLine
 10
45.05130268676281
 20
37.14954783776052
 30
0.0
 11
45.05130268676278
 21
71.61237694499281
 31
0.0
  0
LINE
  5
613
330
2
100
AcDbEntity
  8
0
  6
HIDDEN
 62
     7
100
AcDbLine
 10
51.80773896466654
 20
43.92223063058288
 30
0.0
 11
51.80773896466652
 21
76.68307385293956
 31
0.0
  0
LINE
  5
627
330
2
100
AcDbEntity
  8
0
  6
HIDDEN
 62
     7
100
AcDbLine
 10
74.27244127199009
 20
43.91981075102603
 30
0.0
 11
74.27244127199
 21
68.81647347953633
 31
0.0
  0
LINE
  5
628
330
2
100
AcDbEntity
  8
0
  6
HIDDEN
 62
     7
100
AcDbLine
 10
70.829065323704
 20
43.92015697533945
 30
0.0
 11
70.829065323704
 21
71.3517995479475
 31
0.0
  0
INSERT
  5
6AF
330
2
100
AcDbEntity
  8
0
 62
     7
100
AcDbBlockReference
 66
     1
  2
REVISE12
 10
62.0
 20
6.0
 30
0.0
 41
8.0
 42
8.0
 43
8.0
  0
ATTRIB
  5
6B0
330
6AF
100
AcDbEntity
  8
0
100
AcDbText
 10
62.25
 20
6.500000000000007
 30
0.0
 40
1.0
  1

 41
2.25
 72
     5
 11
63.75
 21
6.500000000000007
 31
0.0
100
AcDbAttribute
280
     0
  2
NO
 70
     8
280
     0
  0
ATTRIB
  5
6B1
330
6AF
100
AcDbEntity
  8
0
100
AcDbText
 10
64.5
 20
6.500000000000007
 30
0.0
 40
1.0
  1

100
AcDbAttribute
280
     0
  2
REV
 70
     8
280
     0
  0
ATTRIB
  5
6B2
330
6AF
100
AcDbEntity
  8
0
100
AcDbText
 10
84.50000000000001
 20
6.500000000000007
 30
0.0
 40
1.0
  1

 41
0.9
 72
     5
 11
89.74999999999999
 21
6.500000000000007
 31
0.0
100
AcDbAttribute
280
     0
  2
RDATE
 70
     8
280
     0
  0
ATTRIB
  5
6B3
330
6AF
100
AcDbEntity
  8
0
100
AcDbText
 10
90.25
 20
6.500000000000007
 30
0.0
 40
1.0
  1

100
AcDbAttribute
280
     0
  2
BY
 70
     8
280
     0
  0
SEQEND
  5
6B4
330
6AF
100
AcDbEntity
  8
0
  0
TEXT
  5
6CC
330
2
100
AcDbEntity
  8
0
 62
     7
100
AcDbText
 10
119.1292080807761
 20
45.84125947658423
 30
0.0
 40
1.294770642400231
  1
CAP(TYP)
 41
0.8
100
AcDbText
  0
LINE
  5
6CE
330
2
100
AcDbEntity
  8
0
 62
     7
100
AcDbLine
 10
122.2526229705134
 20
41.62457884309557
 30
0.0
 11
122.2526229705134
 21
39.40900475026588
 31
0.0
  0
LINE
  5
6CF
330
2
100
AcDbEntity
  8
0
 62
     7
100
AcDbLine
 10
124.9352935432832
 20
40.53305090205862
 30
0.0
 11
122.8393056895664
 21
40.53305090205863
 31
0.0
  0
LINE
  5
6D0
330
2
100
AcDbEntity
  8
0
 62
     7
100
AcDbLine
 10
122.2526229705134
 20
40.53305090205863
 30
0.0
 11
120.8219650771908
 21
40.53305090205863
 31
0.0
  0
LINE
  5
6D2
330
2
100
AcDbEntity
  8
0
 62
     7
100
AcDbLine
 10
122.2526229705134
 20
38.23727086822052
 30
0.0
 11
122.2526229705134
 21
36.02169677539083
 31
0.0
  0
LINE
  5
6D3
330
2
100
AcDbEntity
  8
0
 62
     7
100
AcDbLine
 10
124.9352935432832
 20
37.14574292718356
 30
0.0
 11
122.8393056895664
 21
37.14574292718358
 31
0.0
  0
LINE
  5
6D4
330
2
100
AcDbEntity
  8
0
 62
     7
100
AcDbLine
 10
122.2526229705134
 20
37.14574292718358
 30
0.0
 11
120.8219650771908
 21
37.14574292718358
 31
0.0
  0
LINE
  5
6D6
330
2
100
AcDbEntity
  8
0
 62
     7
100
AcDbLine
 10
122.2526229705134
 20
45.01190375453866
 30
0.0
 11
122.2526229705134
 21
42.79632966170896
 31
0.0
  0
LINE
  5
6D7
330
2
100
AcDbEntity
  8
0
 62
     7
100
AcDbLine
 10
124.9352935432832
 20
43.9203758135017
 30
0.0
 11
122.8393056895664
 21
43.92037581350172
 31
0.0
  0
LINE
  5
6D8
330
2
100
AcDbEntity
  8
0
 62
     7
100
AcDbLine
 10
122.2526229705134
 20
43.92037581350172
 30
0.0
 11
120.8219650771908
 21
43.92037581350172
 31
0.0
  0
LINE
  5
6D9
330
2
100
AcDbEntity
  8
0
 62
     7
100
AcDbLine
 10
124.9352935432832
 20
37.14574292718356
 30
0.0
 11
124.9352935432833
 21
43.9203758135017
 31
0.0
  0
LINE
  5
709
330
2
100
AcDbEntity
  8
0
 62
     7
100
AcDbLine
 10
122.8393056895664
 20
41.62457884309557
 30
0.0
 11
122.8393056895664
 21
39.40900475026588
 31
0.0
  0
LINE
  5
70A
330
2
100
AcDbEntity
  8
0
 62
     7
100
AcDbLine
 10
122.8393056895664
 20
38.23727086822052
 30
0.0
 11
122.8393056895664
 21
36.02169677539083
 31
0.0
  0
LINE
  5
70B
330
2
100
AcDbEntity
  8
0
 62
     7
100
AcDbLine
 10
122.8393056895664
 20
45.01190375453866
 30
0.0
 11
122.8393056895664
 21
42.79632966170896
 31
0.0
  0
LINE
  5
8E0
330
2
100
AcDbEntity
  8
0
  6
HIDDEN
 62
     7
100
AcDbLine
 10
77.58550203967714
 20
66.28110264000078
 30
0.0
 11
77.58550203967714
 21
37.14665235586025
 31
0.0
  0
TEXT
  5
9AB
330
2
100
AcDbEntity
  8
0
 62
     7
100
AcDbText
 10
27.57975160844699
 20
74.51203910624716
 30
0.0
 40
1.636435182753259
  1
FROM
 41
0.8
  7
MASTER
100
AcDbText
  0
TEXT
  5
9AC
330
2
100
AcDbEntity
  8
0
 62
     7
100
AcDbText
 10
27.57975160844699
 20
71.86257261988481
 30
0.0
 40
1.636435182753259
  1
DRIVE
 41
0.8
  7
MASTER
100
AcDbText
  0
TEXT
  5
9C7
330
2
100
AcDbEntity
  8
0
 62
     7
100
AcDbText
 10
13.4889456927223
 20
75.18035020104448
 30
0.0
 40
1.332053695100958
  1
600 VOLTS
 41
0.8
  7
MASTER
100
AcDbText
  0
TEXT
  5
9C8
330
2
100
AcDbEntity
  8
0
 62
     7
100
AcDbText
 10
15.61469876099059
 20
73.1236334127895
 30
0.0
 40
1.332053695100958
  1
80Hz 
 41
0.8
  7
MASTER
100
AcDbText
  0
TEXT
  5
AC3
330
2
100
AcDbEntity
  8
0
 62
     7
100
AcDbText
 10
118.8647753009381
 20
47.9393862376086
 30
0.0
 40
0.5832028987461124
  1
SINGLE PHASE CAPS
 41
0.8
100
AcDbText
  0
VIEWPORT
  5
3AC
330
C
100
AcDbEntity
 67
     1
  8
0
100
AcDbViewport
 10
5.333333052988126
 20
4.083333221946175
 30
0.0
 40
16.03780612301185
 41
8.992999745766947
 68
     1
 69
     1
 12
5.333333052988126
 22
4.083333221946175
 13
0.0
 23
0.0
 14
0.5
 24
0.5
 15
0.5
 25
0.5
 16
0.0
 26
0.0
 36
1.0
 17
0.0
 27
0.0
 37
0.0
 42
50.0
 43
0.0
 44
0.0
 45
8.992999745766947
 50
0.0
 51
0.0
 72
   100
 90
    32800
  1

281
     0
 71
     1
 74
     0
110
0.0
120
0.0
130
0.0
111
1.0
121
0.0
131
0.0
112
0.0
122
1.0
132
0.0
 79
     0
146
0.0
170
     0
 61
     5
348
690
292
     1
282
     1
141
0.0
142
0.0
 63
   250
421
  3355443
1001
GENIUS_GENSCREG_15
1000
PF
1040
1.0
1000
DF
1040
1.0
1000
MIN
1011
-2.6855700085178
1021
-0.4131666509372991
1031
0.0
1000
MAX
1011
13.35223611449405
1021
8.579833094829648
1031
0.0
1000
FLAGS
1070
     4
1001
GENIUS_GENODEF_13
1002
{
1000
HIER
1070
     0
1002
}
1002
{
1000
MANEDIT
1070
     0
1002
}
1002
{
1000
NOSEL
1070
     0
1002
}
1002
{
1000
BEHIND
1070
     0
1002
}
1002
{
1000
OTHER
1070
     0
1002
}
1002
{
1000
REACTOR
1002
}
1001
GENIUS_GENOBJ-N-SDF_13
1002
{
1000
OWNER
1000
GEN
1002
}
  0
ENDSEC
  0
SECTION
  2
OBJECTS
  0
DICTIONARY
  5
7
330
0
100
AcDbDictionary
281
     1
  3
ACAD_CIP_PREVIOUS_PRODUCT_INFO
350
CA0
  3
ACAD_COLOR
350
69B
  3
ACAD_DETAILVIEWSTYLE
350
CED
  3
ACAD_FIELDLIST
350
D67
  3
ACAD_GROUP
350
1F
  3
ACAD_LAYOUT
350
B
  3
ACAD_MATERIAL
350
686
  3
ACAD_MLEADERSTYLE
350
C9B
  3
ACAD_MLINESTYLE
350
20
  3
ACAD_PLOTSETTINGS
350
21
  3
ACAD_PLOTSTYLENAME
350
6
  3
ACAD_SCALELIST
350
C89
  3
ACAD_SECTIONVIEWSTYLE
350
CEB
  3
ACAD_TABLESTYLE
350
69C
  3
ACAD_VISUALSTYLE
350
68A
  3
ACDB_RECOMPOSE_DATA
350
E38
  3
AcDbVariableDictionary
350
342
  3
ACGREF_MASTER
350
D05
  3
ACGREFACAD_MASTER
350
D09
  3
AcmDictionary
350
D21
  3
ACME_COMMAND_HISTORY
350
CFE
  3
ACME_SCOPE_NAME
350
CFD
  3
ACMESTATEMGR
350
D01
  3
AcmeSysVarManager
350
CFF
  3
AcmSystemVariableManager
350
D0E
  3
AMG
350
CF6
  3
AMGSNAPSETTINGS
350
DC9
  3
AMI_MASTER
350
D0C
  3
AUTOCAD_ASSEMBLIES_PROJECT
350
D17
  3
Designer_Assemblies_SysVars
350
D11
  3
GREFAM_MODULE
350
D0D
  3
StructToggleButtonState
350
E16
  0
DICTIONARY
  5
775
330
19
100
AcDbDictionary
280
     1
281
     1
  0
DICTIONARY
  5
6A1
330
10
100
AcDbDictionary
280
     1
281
     1
  3
ACAD_LAYERSTATES
360
6A2
  0
DICTIONARY
  5
CA5
330
4
100
AcDbDictionary
280
     1
281
     1
  3
ADSK_XREC_LAYER_RECONCILED
360
CA6
  0
DICTIONARY
  5
CA7
330
26
100
AcDbDictionary
280
     1
281
     1
  3
ADSK_XREC_LAYER_RECONCILED
360
CA8
  0
DICTIONARY
  5
CA9
330
243
100
AcDbDictionary
280
     1
281
     1
  3
ADSK_XREC_LAYER_RECONCILED
360
CAA
  0
DICTIONARY
  5
DD2
330
DD1
100
AcDbDictionary
280
     1
281
     1
  0
DICTIONARY
  5
397
330
2
100
AcDbDictionary
280
     1
281
     1
  3
ACAD_LAYOUTSELFREF
360
398
  3
ACAD_SORTENTS
360
453
  0
DICTIONARY
  5
39D
330
C
100
AcDbDictionary
280
     1
281
     1
  3
ACAD_LAYOUTSELFREF
360
39E
  0
DICTIONARY
  5
DC6
330
284
100
AcDbDictionary
280
     1
281
     1
  0
XRECORD
  5
CA0
102
{ACAD_REACTORS
330
7
102
}
330
7
100
AcDbXrecord
280
     1
300
AMECH_PP
300
2019
300
87089AMECH_PP_2019_0F
  0
DICTIONARY
  5
69B
102
{ACAD_REACTORS
330
7
102
}
330
7
100
AcDbDictionary
281
     1
  0
DICTIONARY
  5
CED
102
{ACAD_REACTORS
330
7
102
}
330
7
100
AcDbDictionary
281
     1
  3
ASME Y14.35 - 1987
350
D5C
  3
ASME Y14.35 - 1987(1)
350
DDD
  3
Imperial24
350
CEE
  0
FIELDLIST
  5
D67
102
{ACAD_REACTORS
330
7
102
}
330
7
100
AcDbIdSet
 90
        8
330
D65
330
D66
330
D68
330
D69
330
DD9
330
DDA
330
DDB
330
DDC
100
AcDbFieldList
  0
DICTIONARY
  5
1F
102
{ACAD_REACTORS
330
7
102
}
330
7
100
AcDbDictionary
281
     1
  0
DICTIONARY
  5
B
102
{ACAD_REACTORS
330
7
102
}
330
7
100
AcDbDictionary
281
     1
  3
Layout1
350
F
  3
Model
350
A
  0
DICTIONARY
  5
686
102
{ACAD_REACTORS
330
7
102
}
330
7
100
AcDbDictionary
281
     1
  3
ByBlock
350
688
  3
ByLayer
350
687
  3
Global
350
689
  0
DICTIONARY
  5
C9B
102
{ACAD_REACTORS
330
7
102
}
330
7
100
AcDbDictionary
281
     1
  3
Standard
350
C9C
  0
DICTIONARY
  5
20
102
{ACAD_REACTORS
330
7
102
}
330
7
100
AcDbDictionary
281
     1
  3
STANDARD
350
23
  0
DICTIONARY
  5
21
102
{ACAD_REACTORS
330
7
102
}
330
7
100
AcDbDictionary
281
     1
  0
ACDBDICTIONARYWDFLT
  5
6
102
{ACAD_REACTORS
330
7
102
}
330
7
100
AcDbDictionary
281
     1
  3
Normal
350
5
100
AcDbDictionaryWithDefault
340
5
  0
DICTIONARY
  5
C89
102
{ACAD_REACTORS
330
7
102
}
330
7
100
AcDbDictionary
281
     1
  3
A0
350
C8A
  3
A1
350
C8B
  3
A2
350
C8C
  3
A3
350
C8D
  3
A4
350
C8E
  3
A5
350
C8F
  3
A6
350
C90
  3
A7
350
C91
  3
A8
350
C92
  3
A9
350
C93
  3
B0
350
C94
  3
B1
350
C95
  3
B2
350
C96
  3
B3
350
C97
  3
B4
350
C98
  3
B5
350
C99
  3
B6
350
C9A
  0
DICTIONARY
  5
CEB
102
{ACAD_REACTORS
330
7
102
}
330
7
100
AcDbDictionary
281
     1
  3
ASME Y14.3 - 2003
350
D62
  3
ASME Y14.3 - 2003(1)
350
DD6
  3
Imperial24
350
CEC
  0
DICTIONARY
  5
69C
102
{ACAD_REACTORS
330
7
102
}
330
7
100
AcDbDictionary
281
     1
  3
Standard
350
69D
  0
DICTIONARY
  5
68A
102
{ACAD_REACTORS
330
7
102
}
330
7
100
AcDbDictionary
281
     1
  3
2dWireframe
350
690
  3
3D Hidden
350
692
  3
3dWireframe
350
691
  3
Basic
350
68F
  3
Brighten
350
696
  3
ColorChange
350
69A
  3
Conceptual
350
693
  3
Dim
350
695
  3
EdgeColorOff
350
C88
  3
Facepattern
350
699
  3
Flat
350
68B
  3
FlatWithEdges
350
68C
  3
Gouraud
350
68D
  3
GouraudWithEdges
350
68E
  3
Hidden
350
C80
  3
JitterOff
350
C86
  3
Linepattern
350
698
  3
OverhangOff
350
C87
  3
Realistic
350
694
  3
Shaded
350
C85
  3
Shaded with edges
350
C84
  3
Shades of Gray
350
C81
  3
Sketchy
350
C82
  3
Thicken
350
697
  3
Wireframe
350
C7F
  3
X-Ray
350
C83
  0
XRECORD
  5
E38
102
{ACAD_REACTORS
330
7
102
}
330
7
100
AcDbXrecord
280
     1
 90
        1
330
69D
  0
DICTIONARY
  5
342
102
{ACAD_REACTORS
330
7
102
}
330
7
100
AcDbDictionary
281
     1
  3
CANNOSCALE
350
CE6
  3
CMLEADERSTYLE
350
CE4
  3
CTABLESTYLE
350
799
  3
CVIEWDETAILSTYLE
350
E28
  3
CVIEWSECTIONSTYLE
350
E29
  3
DIMASSOC
350
344
  3
HIDETEXT
350
343
  3
INDEXCTL
350
79A
  3
LAYEREVAL
350
CE8
  3
LAYERNOTIFY
350
CE9
  3
LIGHTINGUNITS
350
CE7
  3
MSLTSCALE
350
CE5
  3
SORTENTS
350
455
  0
ACAD_PROXY_OBJECT
  5
D05
102
{ACAD_REACTORS
330
7
102
}
330
7
100
AcDbProxyObject
 90
      499
 91
      528
 71
    31
 97
      125
 70
     0
162
                 0
161
                34
310
0C000042CC
 94
        0
  0
ACAD_PROXY_OBJECT
  5
D09
102
{ACAD_REACTORS
330
7
102
}
330
7
100
AcDbProxyObject
 90
      499
 91
      531
 71
    31
 97
      125
 70
     0
162
                 0
161
               114
310
04000041C08000000000000000000C
 94
        0
  0
DICTIONARY
  5
D21
102
{ACAD_REACTORS
330
7
102
}
330
7
100
AcDbDictionary
281
     1
  3
AcmBOMDATA
350
D22
  3
AcmStdDictionary
350
D2A
  0
ACAD_PROXY_OBJECT
  5
CFE
102
{ACAD_REACTORS
330
7
102
}
330
7
100
AcDbProxyObject
 90
      499
 91
      523
 71
    31
 97
      125
 70
     0
162
              1546
311
4115401380110013C010455004E0044004F00415080114011001240150010545005200410053004500425400104014C01500114010C0130012401400106420043004C004F005300450041168013C013C01340105510053004100560045004C534014C011C008000B4008001400140010400E80080008000800190019401CC0
311
1AC01D001BC01C000B8018401C801E00080011801A401B001940158019401C801CC01A401BC01B800E8008000C800C400B800C000B800D000E400B800C000B800C000C
161
               106
310
420060180601806018060140404C
 94
        0
  0
ACAD_PROXY_OBJECT
  5
CFD
102
{ACAD_REACTORS
330
7
102
}
330
7
100
AcDbProxyObject
 90
      499
 91
      522
 71
    31
 97
      125
 70
     0
162
                 0
161
               258
310
140000540080000000000000000010C442000000000000000000000000AAAAAA8C
360
D00
360
D0F
360
D12
360
D13
360
D14
360
D15
360
D16
360
D1B
360
D1C
360
D1D
360
D1E
360
D1F
 94
        0
  0
ACAD_PROXY_OBJECT
  5
D01
102
{ACAD_REACTORS
330
7
102
}
330
7
100
AcDbProxyObject
 90
      499
 91
      526
 71
    31
 97
      125
 70
     0
162
                 0
161
                50
310
1400004524128C
 94
        0
  0
ACAD_PROXY_OBJECT
  5
CFF
102
{ACAD_REACTORS
330
7
102
}
330
7
100
AcDbProxyObject
 90
      499
 91
      524
 71
    31
 97
      125
 70
     0
162
                 0
161
                32
310
9014220000
330
D00
 94
        0
  0
ACAD_PROXY_OBJECT
  5
D0E
102
{ACAD_REACTORS
330
7
102
}
330
7
100
AcDbProxyObject
 90
      499
 91
      524
 71
    31
 97
      125
 70
     0
162
                 0
161
                32
310
9014220000
330
D0F
 94
        0
  0
DICTIONARY
  5
CF6
102
{ACAD_REACTORS
330
7
102
}
330
7
100
AcDbDictionary
281
     1
  3
AcMgSettings
350
CF7
  3
AMGLAYCFG
350
D3E
  0
DICTIONARY
  5
DC9
102
{ACAD_REACTORS
330
7
102
}
330
7
100
AcDbDictionary
281
     1
  3
DIMENSION
350
DCE
  3
FEA
350
DCD
  3
HATCH (1)
350
DCA
  3
HATCH (2)
350
DCB
  3
SIMPLE WELD
350
DCF
  3
SYMBOLS
350
DCC
  0
ACAD_PROXY_OBJECT
  5
D0C
102
{ACAD_REACTORS
330
7
102
}
330
7
100
AcDbProxyObject
 90
      499
 91
      534
 71
    31
 97
      125
 70
     0
162
                 0
161
                34
310
050000428C
 94
        0
  0
ACAD_PROXY_OBJECT
  5
D17
102
{ACAD_REACTORS
330
7
102
}
330
7
100
AcDbProxyObject
 90
      499
 91
      538
 71
    31
 97
      125
 70
     0
162
                 0
161
                98
310
0E000053C0000000000000000C
330
D1D
330
0
330
D1E
330
0
330
0
330
0
330
0
330
0
 94
        0
  0
ACAD_PROXY_OBJECT
  5
D11
102
{ACAD_REACTORS
330
7
102
}
330
7
100
AcDbProxyObject
 90
      499
 91
      524
 71
    31
 97
      125
 70
     0
162
                 0
161
                64
310
905422000000000000
330
D12
330
D13
330
D14
330
D15
330
D16
 94
        0
  0
ACAD_PROXY_OBJECT
  5
D0D
102
{ACAD_REACTORS
330
7
102
}
330
7
100
AcDbProxyObject
 90
      499
 91
      535
 71
    31
 97
      125
 70
     0
162
                 0
161
                 8
310
0500
 94
        0
  0
ACAD_PROXY_OBJECT
  5
E16
102
{ACAD_REACTORS
330
7
102
}
330
7
100
AcDbProxyObject
 90
      499
 91
      577
 71
    31
 97
      125
 70
     0
162
                 0
161
                 1
310
4C
 94
        0
  0
DICTIONARY
  5
6A2
102
{ACAD_REACTORS
330
6A1
102
}
330
6A1
100
AcDbDictionary
281
     1
  0
XRECORD
  5
CA6
102
{ACAD_REACTORS
330
CA5
102
}
330
CA5
100
AcDbXrecord
280
     1
290
     1
  0
XRECORD
  5
CA8
102
{ACAD_REACTORS
330
CA7
102
}
330
CA7
100
AcDbXrecord
280
     1
290
     1
  0
XRECORD
  5
CAA
102
{ACAD_REACTORS
330
CA9
102
}
330
CA9
100
AcDbXrecord
280
     1
290
     1
  0
XRECORD
  5
398
102
{ACAD_REACTORS
330
397
102
}
330
397
100
AcDbXrecord
280
     1
340
2
  0
SORTENTSTABLE
  5
453
102
{ACAD_REACTORS
330
397
102
}
330
397
100
AcDbSortentsTable
330
2
  0
XRECORD
  5
39E
102
{ACAD_REACTORS
330
39D
102
}
330
39D
100
AcDbXrecord
280
     1
340
C
  0
ACDBDETAILVIEWSTYLE
  5
D5C
102
{ACAD_REACTORS
330
D32
330
CED
102
}
330
CED
100
AcDbModelDocViewStyle
 70
     0
  3

290
     0
300
ASME Y14.35 - 1987
 90
        1
100
AcDbDetailViewStyle
 70
     0
 71
     0
 90
        3
 71
     1
340
12
 62
    30
 40
0.24
340
D5D
 62
    92
 40
0.24
300

 40
0.36
280
     2
 71
     2
340
8
 90
       15
 62
    92
 71
     3
340
12
 62
    30
 40
0.24
 90
        1
 40
0.75
 90
        1
300
%<\AcVar ViewType \f "%tc1">% %<\AcVar ViewDetailId>%\PSCALE %<\AcVar ViewScale \f "%sn">%
 71
     4
340
8
 90
       15
 62
    92
340
8
 90
       15
 62
    92
280
     0
  0
ACDBDETAILVIEWSTYLE
  5
DDD
102
{ACAD_REACTORS
330
CED
330
DFB
102
}
330
CED
100
AcDbModelDocViewStyle
 70
     0
  3

290
     0
300
ASME Y14.35 - 1987(1)
 90
        0
100
AcDbDetailViewStyle
 70
     0
 71
     0
 90
        3
 71
     1
340
12
 62
    30
 40
0.24
340
D5D
 62
     3
 40
0.24
300

 40
0.36
280
     2
 71
     2
340
8
 90
       15
 62
     3
 71
     3
340
12
 62
    30
 40
0.24
 90
        1
 40
0.75
 90
        1
300
%<\AcVar ViewType \f "%tc1">% %<\AcVar ViewDetailId>%\PSCALE %<\AcVar ViewScale \f "%sn">%
 71
     4
340
8
 90
       15
 62
     3
340
8
 90
       15
 62
     3
280
     0
  0
ACDBDETAILVIEWSTYLE
  5
CEE
102
{ACAD_REACTORS
330
CED
330
D57
102
}
330
CED
100
AcDbModelDocViewStyle
 70
     0
  3
Imperial24
290
     0
300
Imperial24
 90
        0
100
AcDbDetailViewStyle
 70
     0
 71
     0
 90
        3
 71
     1
340
12
 62
   256
 40
0.24
340
0
 62
   256
 40
0.24
300

 40
0.36
280
     3
 71
     2
340
8
 90
       25
 62
   256
 71
     3
340
12
 62
   256
 40
0.24
 90
        1
 40
0.75
 90
        1
300
%<\AcVar ViewType \f "%tc1">% %<\AcVar ViewDetailId>%\PSCALE %<\AcVar ViewScale \f "%sn">%
 71
     4
340
8
 90
       25
 62
   256
340
8
 90
       25
 62
   256
280
     0
  0
LAYOUT
  5
F
102
{ACAD_REACTORS
330
B
102
}
330
B
100
AcDbPlotSettings
  1

  2
\\TCI3010\HP LaserJet 5000N
  4
Letter
  6

 40
4.233333110809326
 41
4.233341693878173
 42
8.466659545898437
 43
4.23333740234375
 44
215.8999938964844
 45
279.3999938964844
 46
0.0
 47
0.0
 48
0.0
 49
0.0
140
0.0
141
0.0
142
1.0
143
1.0
 70
   688
 72
     0
 73
     1
 74
     5
  7
monochrome.ctb
 75
    16
147
1.0
 76
     0
 77
     2
 78
   300
148
0.0
149
0.0
100
AcDbLayout
  1
Layout1
 70
     1
 71
     1
 10
-0.1666668268639272
 20
-0.166666657905879
 11
10.83333293284018
 21
8.333333101798229
 12
0.0
 22
0.0
 32
0.0
 14
1.066666593701819
 24
0.80000000488101
 34
0.0
 15
9.599999343316385
 25
7.200000043929092
 35
0.0
146
0.0
 13
0.0
 23
0.0
 33
0.0
 16
1.0
 26
0.0
 36
0.0
 17
0.0
 27
1.0
 37
0.0
 76
     0
330
C
331
3AC
  0
LAYOUT
  5
A
102
{ACAD_XDICTIONARY
360
CB2
102
}
102
{ACAD_REACTORS
330
B
102
}
330
B
100
AcDbPlotSettings
  1

  2
\\TCI3010\HP LaserJet 5000N
  4
Letter
  6

 40
4.233333110809326
 41
4.233341693878173
 42
8.466659545898437
 43
4.23333740234375
 44
215.8999938964844
 45
279.3999938964844
 46
0.0
 47
0.0
 48
0.0
 49
0.0
140
0.0
141
0.0
142
1.0
143
1.0
 70
 11952
 72
     0
 73
     1
 74
     0
  7
monochrome.ctb
 75
     0
147
1.0
 76
     0
 77
     2
 78
   300
148
-596.6548262548258
149
12.94517374517379
100
AcDbLayout
  1
Model
 70
     1
 71
     0
 10
0.0
 20
0.0
 11
12.0
 21
9.0
 12
0.0
 22
0.0
 32
0.0
 14
0.0
 24
0.0
 34
0.0
 15
0.0
 25
0.0
 35
0.0
146
0.0
 13
0.0
 23
0.0
 33
0.0
 16
1.0
 26
0.0
 36
0.0
 17
0.0
 27
1.0
 37
0.0
 76
     0
330
2
331
684
  0
MATERIAL
  5
688
102
{ACAD_REACTORS
330
686
102
}
330
686
100
AcDbMaterial
  1
ByBlock
 73
     1
 78
     1
172
     1
176
     1
270
     1
274
     1
 94
       63
  0
MATERIAL
  5
687
102
{ACAD_REACTORS
330
686
102
}
330
686
100
AcDbMaterial
  1
ByLayer
 73
     1
 78
     1
172
     1
176
     1
270
     1
274
     1
 94
       63
  0
MATERIAL
  5
689
102
{ACAD_REACTORS
330
686
102
}
330
686
100
AcDbMaterial
  1
Global
 73
     1
 78
     1
172
     1
176
     1
270
     1
274
     1
 94
       63
  0
MLEADERSTYLE
  5
C9C
102
{ACAD_REACTORS
330
C9B
102
}
330
C9B
100
AcDbMLeaderStyle
179
     2
170
     2
171
     1
172
     0
 90
        2
 40
0.0
 41
0.0
173
     1
 91
-1056964608
340
15
 92
       -2
290
     1
 42
0.09
291
     1
 43
0.36
  3
Standard
 44
0.18
300

342
12
174
     1
178
     6
175
     1
176
     0
 93
-1056964608
 45
0.18
292
     0
297
     0
 46
0.18
 94
-1056964608
 47
1.0
 49
1.0
140
1.0
293
     1
141
0.0
294
     1
177
     0
142
1.0
295
     0
296
     0
143
0.125
271
     0
272
     9
273
     9
298
     1
  0
MLINESTYLE
  5
23
102
{ACAD_REACTORS
330
20
102
}
330
20
100
AcDbMlineStyle
  2
STANDARD
 70
     0
  3

 62
     0
 51
90.0
 52
90.0
 71
     2
 49
0.5
 62
   256
  6
BYLAYER
 49
-0.5
 62
   256
  6
BYLAYER
  0
ACDBPLACEHOLDER
  5
5
102
{ACAD_REACTORS
330
6
102
}
330
6
  0
SCALE
  5
C8A
102
{ACAD_REACTORS
330
C89
102
}
330
C89
100
AcDbScale
 70
     0
300
1:1
140
1.0
141
1.0
290
     1
  0
SCALE
  5
C8B
102
{ACAD_REACTORS
330
C89
102
}
330
C89
100
AcDbScale
 70
     0
300
1/128" = 1'-0"
140
0.0078125
141
12.0
290
     0
  0
SCALE
  5
C8C
102
{ACAD_REACTORS
330
C89
102
}
330
C89
100
AcDbScale
 70
     0
300
1/64" = 1'-0"
140
0.015625
141
12.0
290
     0
  0
SCALE
  5
C8D
102
{ACAD_REACTORS
330
C89
102
}
330
C89
100
AcDbScale
 70
     0
300
1/32" = 1'-0"
140
0.03125
141
12.0
290
     0
  0
SCALE
  5
C8E
102
{ACAD_REACTORS
330
C89
102
}
330
C89
100
AcDbScale
 70
     0
300
1/16" = 1'-0"
140
0.0625
141
12.0
290
     0
  0
SCALE
  5
C8F
102
{ACAD_REACTORS
330
C89
102
}
330
C89
100
AcDbScale
 70
     0
300
3/32" = 1'-0"
140
0.09375
141
12.0
290
     0
  0
SCALE
  5
C90
102
{ACAD_REACTORS
330
C89
102
}
330
C89
100
AcDbScale
 70
     0
300
1/8" = 1'-0"
140
0.125
141
12.0
290
     0
  0
SCALE
  5
C91
102
{ACAD_REACTORS
330
C89
102
}
330
C89
100
AcDbScale
 70
     0
300
3/16" = 1'-0"
140
0.1875
141
12.0
290
     0
  0
SCALE
  5
C92
102
{ACAD_REACTORS
330
C89
102
}
330
C89
100
AcDbScale
 70
     0
300
1/4" = 1'-0"
140
0.25
141
12.0
290
     0
  0
SCALE
  5
C93
102
{ACAD_REACTORS
330
C89
102
}
330
C89
100
AcDbScale
 70
     0
300
3/8" = 1'-0"
140
0.375
141
12.0
290
     0
  0
SCALE
  5
C94
102
{ACAD_REACTORS
330
C89
102
}
330
C89
100
AcDbScale
 70
     0
300
1/2" = 1'-0"
140
0.5
141
12.0
290
     0
  0
SCALE
  5
C95
102
{ACAD_REACTORS
330
C89
102
}
330
C89
100
AcDbScale
 70
     0
300
3/4" = 1'-0"
140
0.75
141
12.0
290
     0
  0
SCALE
  5
C96
102
{ACAD_REACTORS
330
C89
102
}
330
C89
100
AcDbScale
 70
     0
300
1" = 1'-0"
140
1.0
141
12.0
290
     0
  0
SCALE
  5
C97
102
{ACAD_REACTORS
330
C89
102
}
330
C89
100
AcDbScale
 70
     0
300
1-1/2" = 1'-0"
140
1.5
141
12.0
290
     0
  0
SCALE
  5
C98
102
{ACAD_REACTORS
330
C89
102
}
330
C89
100
AcDbScale
 70
     0
300
3" = 1'-0"
140
3.0
141
12.0
290
     0
  0
SCALE
  5
C99
102
{ACAD_REACTORS
330
C89
102
}
330
C89
100
AcDbScale
 70
     0
300
6" = 1'-0"
140
6.0
141
12.0
290
     0
  0
SCALE
  5
C9A
102
{ACAD_REACTORS
330
C89
102
}
330
C89
100
AcDbScale
 70
     0
300
1'-0" = 1'-0"
140
12.0
141
12.0
290
     0
  0
ACDBSECTIONVIEWSTYLE
  5
D62
102
{ACAD_XDICTIONARY
360
D63
102
}
102
{ACAD_REACTORS
330
D33
330
CEB
102
}
330
CEB
100
AcDbModelDocViewStyle
 70
     0
  3

290
     0
300
ASME Y14.3 - 2003
 90
        1
100
AcDbSectionViewStyle
 70
     0
 71
     0
 90
       78
 71
     1
340
12
 62
    30
 40
0.24
340
0
340
0
 62
     7
 40
0.24
300
I,O,Q,S,X,Z
 40
0.4
 90
        3
 40
0.12
 90
        1
 71
     2
340
D02
 90
       30
 62
     7
340
D02
 90
       30
 62
     7
 40
0.4
 40
0.0
 40
0.4
 71
     3
340
12
 62
    30
 40
0.24
 90
        0
 40
0.18
 90
        1
300
%<\AcVar ViewType \f "%tc1">% %<\AcVar ViewSectionStartId>%-%<\AcVar ViewSectionEndId>%
 71
     4
 62
   256
 62
   257
300
ANSI31
 40
1.0
 90
        0
290
     0
290
     0
 90
        6
 40
0.0
 40
1.570796326794896
 40
0.2617993877991494
 40
1.308996938995747
 40
-0.2617993877991494
 40
1.832595714594046
  0
ACDBSECTIONVIEWSTYLE
  5
DD6
102
{ACAD_XDICTIONARY
360
DD7
102
}
102
{ACAD_REACTORS
330
CEB
330
DFC
102
}
330
CEB
100
AcDbModelDocViewStyle
 70
     0
  3

290
     0
300
ASME Y14.3 - 2003(1)
 90
        0
100
AcDbSectionViewStyle
 70
     0
 71
     0
 90
       78
 71
     1
340
12
 62
    30
 40
0.24
340
0
340
0
 62
     7
 40
0.24
300
I,O,Q,S,X,Z
 40
0.4
 90
        3
 40
0.12
 90
        1
 71
     2
340
D02
 90
       30
 62
     7
340
D02
 90
       30
 62
     7
 40
0.4
 40
0.0
 40
0.4
 71
     3
340
12
 62
    30
 40
0.24
 90
        0
 40
0.18
 90
        1
300
%<\AcVar ViewType \f "%tc1">% %<\AcVar ViewSectionStartId>%-%<\AcVar ViewSectionEndId>%
 71
     4
 62
   256
 62
   257
300
ANSI31
 40
1.0
 90
        0
290
     0
290
     0
 90
        6
 40
0.0
 40
1.570796326794896
 40
0.2617993877991494
 40
1.308996938995747
 40
-0.2617993877991494
 40
1.832595714594046
  0
ACDBSECTIONVIEWSTYLE
  5
CEC
102
{ACAD_REACTORS
330
CEB
330
D56
102
}
330
CEB
100
AcDbModelDocViewStyle
 70
     0
  3
Imperial24
290
     0
300
Imperial24
 90
        0
100
AcDbSectionViewStyle
 70
     0
 71
     0
 90
       78
 71
     1
340
12
 62
   256
 40
0.24
340
0
340
0
 62
   256
 40
0.24
300
I, O, Q, S, X, Z
 40
0.48
 90
        3
 40
0.18
 90
        1
 71
     2
340
8
 90
       25
 62
   256
340
8
 90
       50
 62
   256
 40
0.24
 40
0.0
 40
0.24
 71
     3
340
12
 62
   256
 40
0.24
 90
        1
 40
0.75
 90
        1
300
%<\AcVar ViewType \f "%tc1">% %<\AcVar ViewSectionStartId>%-%<\AcVar ViewSectionEndId>%\PSCALE %<\AcVar ViewScale \f "%sn">%
 71
     4
 62
   256
 62
   257
300
ANSI31
 40
1.0
 90
        0
290
     0
290
     0
 90
        6
 40
0.0
 40
1.570796326794896
 40
0.2617993877991494
 40
1.308996938995747
 40
-0.2617993877991494
 40
1.832595714594046
  0
TABLESTYLE
  5
69D
102
{ACAD_XDICTIONARY
360
E36
102
}
102
{ACAD_REACTORS
330
69C
102
}
330
69C
100
AcDbTableStyle
280
     0
  3
Standard
 70
     0
 71
     0
 40
0.06
 41
0.06
280
     0
281
     0
  7
STANDARD
140
0.18
170
     2
 62
     0
 63
     7
283
     0
 90
      512
 91
        0
  1

274
    -2
284
     1
 64
     0
275
    -2
285
     1
 65
     0
276
    -2
286
     1
 66
     0
277
    -2
287
     1
 67
     0
278
    -2
288
     1
 68
     0
279
    -2
289
     1
 69
     0
  7
STANDARD
140
0.25
170
     5
 62
     0
 63
     7
283
     0
 90
      512
 91
        0
  1

274
    -2
284
     1
 64
     0
275
    -2
285
     1
 65
     0
276
    -2
286
     1
 66
     0
277
    -2
287
     1
 67
     0
278
    -2
288
     1
 68
     0
279
    -2
289
     1
 69
     0
  7
STANDARD
140
0.18
170
     5
 62
     0
 63
     7
283
     0
 90
      512
 91
        0
  1

274
    -2
284
     1
 64
     0
275
    -2
285
     1
 65
     0
276
    -2
286
     1
 66
     0
277
    -2
287
     1
 67
     0
278
    -2
288
     1
 68
     0
279
    -2
289
     1
 69
     0
  0
VISUALSTYLE
  5
690
102
{ACAD_REACTORS
330
68A
102
}
330
68A
100
AcDbVisualStyle
  2
2dWireframe
 70
     4
177
     3
291
     0
 70
    58
 90
        0
176
     1
 90
        2
176
     1
 90
        0
176
     1
 90
        0
176
     1
 40
0.6
176
     1
 40
30.0
176
     1
 62
     7
176
     1
 90
        1
176
     1
 90
        4
176
     1
 62
     7
176
     1
 62
   257
176
     1
 90
        1
176
     1
 90
        1
176
     1
 40
1.0
176
     1
 90
        0
176
     1
 62
   257
176
     1
 40
1.0
176
     1
 90
        1
176
     1
 90
        6
176
     1
 90
        2
176
     1
 62
     7
176
     1
 90
        5
176
     1
 90
        0
176
     1
 90
        0
176
     1
290
     0
176
     1
 90
        1
176
     1
 40
0.0
176
     1
 90
        0
176
     1
290
     1
176
     1
290
     1
176
     1
290
     0
176
     1
290
     0
176
     1
290
     0
176
     1
290
     0
176
     1
290
     0
176
     1
290
     0
176
     1
290
     0
176
     1
 90
       50
176
     1
 40
0.0
176
     1
 40
1.0
176
     1
 90
        0
176
     1
 62
    18
420
        0
176
     1
 90
       50
176
     1
 90
        3
176
     1
 62
     5
420
      255
176
     1
290
     0
176
     1
 90
       50
176
     1
 90
       50
176
     1
 90
       50
176
     1
290
     0
176
     1
 90
       50
176
     1
 62
   256
176
     0
 40
1.0
176
     0
 90
        2
176
     1
  1
strokes_ogs.tif
176
     1
290
     0
176
     1
 40
1.0
176
     1
 40
1.0
176
     1
  0
VISUALSTYLE
  5
692
102
{ACAD_REACTORS
330
68A
102
}
330
68A
100
AcDbVisualStyle
  2
3D Hidden
 70
     6
177
     3
291
     0
 70
    58
 90
        1
176
     1
 90
        2
176
     1
 90
        2
176
     1
 90
        0
176
     1
 40
0.6
176
     1
 40
30.0
176
     1
 62
     7
176
     1
 90
        2
176
     1
 90
        2
176
     1
 62
     7
176
     1
 62
   257
176
     1
 90
        2
176
     1
 90
        1
176
     1
 40
40.0
176
     1
 90
        0
176
     1
 62
   257
176
     1
 40
1.0
176
     1
 90
        1
176
     1
 90
        6
176
     1
 90
        2
176
     1
 62
     7
176
     1
 90
        3
176
     1
 90
        0
176
     1
 90
        0
176
     1
290
     0
176
     1
 90
        1
176
     1
 40
0.0
176
     1
 90
        0
176
     1
290
     0
176
     1
290
     1
176
     1
290
     1
176
     1
290
     0
176
     1
290
     0
176
     1
290
     0
176
     1
290
     0
176
     1
290
     0
176
     1
290
     0
176
     1
 90
       50
176
     1
 40
0.0
176
     1
 40
1.0
176
     1
 90
        0
176
     1
 62
    18
420
        0
176
     1
 90
       50
176
     1
 90
        3
176
     1
 62
     5
420
      255
176
     1
290
     0
176
     1
 90
       50
176
     1
 90
       50
176
     1
 90
       50
176
     1
290
     0
176
     1
 90
       50
176
     1
 62
   256
176
     0
 40
1.0
176
     0
 90
        2
176
     1
  1
strokes_ogs.tif
176
     1
290
     0
176
     1
 40
1.0
176
     1
 40
1.0
176
     1
  0
VISUALSTYLE
  5
691
102
{ACAD_REACTORS
330
68A
102
}
330
68A
100
AcDbVisualStyle
  2
3dWireframe
 70
     5
177
     3
291
     0
 70
    58
 90
        0
176
     1
 90
        2
176
     1
 90
        0
176
     1
 90
        0
176
     1
 40
0.6
176
     1
 40
30.0
176
     1
 62
     7
176
     1
 90
        1
176
     1
 90
        4
176
     1
 62
     7
176
     1
 62
   257
176
     1
 90
        1
176
     1
 90
        1
176
     1
 40
1.0
176
     1
 90
        0
176
     1
 62
   257
176
     1
 40
1.0
176
     1
 90
        1
176
     1
 90
        6
176
     1
 90
        2
176
     1
 62
     7
176
     1
 90
        5
176
     1
 90
        0
176
     1
 90
        0
176
     1
290
     0
176
     1
 90
        1
176
     1
 40
0.0
176
     1
 90
        0
176
     1
290
     0
176
     1
290
     1
176
     1
290
     1
176
     1
290
     0
176
     1
290
     0
176
     1
290
     0
176
     1
290
     0
176
     1
290
     0
176
     1
290
     0
176
     1
 90
       50
176
     1
 40
0.0
176
     1
 40
1.0
176
     1
 90
        0
176
     1
 62
    18
420
        0
176
     1
 90
       50
176
     1
 90
        3
176
     1
 62
     5
420
      255
176
     1
290
     0
176
     1
 90
       50
176
     1
 90
       50
176
     1
 90
       50
176
     1
290
     0
176
     1
 90
       50
176
     1
 62
   256
176
     0
 40
1.0
176
     0
 90
        2
176
     1
  1
strokes_ogs.tif
176
     1
290
     0
176
     1
 40
1.0
176
     1
 40
1.0
176
     1
  0
VISUALSTYLE
  5
68F
102
{ACAD_REACTORS
330
68A
102
}
330
68A
100
AcDbVisualStyle
  2
Basic
 70
     7
177
     3
291
     1
 70
    58
 90
        1
176
     1
 90
        0
176
     1
 90
        1
176
     1
 90
        0
176
     1
 40
0.6
176
     1
 40
30.0
176
     1
 62
     7
176
     1
 90
        0
176
     1
 90
        4
176
     1
 62
     7
176
     1
 62
   257
176
     1
 90
        1
176
     1
 90
        1
176
     1
 40
1.0
176
     1
 90
        8
176
     1
 62
     7
176
     1
 40
1.0
176
     1
 90
        1
176
     1
 90
        6
176
     1
 90
        2
176
     1
 62
     7
176
     1
 90
        5
176
     1
 90
        0
176
     1
 90
        0
176
     1
290
     0
176
     1
 90
        1
176
     1
 40
0.0
176
     1
 90
        0
176
     1
290
     0
176
     1
290
     1
176
     1
290
     1
176
     1
290
     0
176
     1
290
     0
176
     1
290
     0
176
     1
290
     0
176
     1
290
     0
176
     1
290
     0
176
     1
 90
       50
176
     1
 40
0.0
176
     1
 40
1.0
176
     1
 90
        0
176
     1
 62
    18
420
        0
176
     1
 90
       50
176
     1
 90
        3
176
     1
 62
     5
420
      255
176
     1
290
     0
176
     1
 90
       50
176
     1
 90
       50
176
     1
 90
       50
176
     1
290
     0
176
     1
 90
       50
176
     1
 62
   256
176
     0
 40
1.0
176
     0
 90
        2
176
     1
  1
strokes_ogs.tif
176
     1
290
     0
176
     1
 40
1.0
176
     1
 40
1.0
176
     1
  0
VISUALSTYLE
  5
696
102
{ACAD_REACTORS
330
68A
102
}
330
68A
100
AcDbVisualStyle
  2
Brighten
 70
    12
177
     3
291
     1
 70
    58
 90
        2
176
     1
 90
        2
176
     1
 90
        0
176
     1
 90
        0
176
     1
 40
0.6
176
     1
 40
30.0
176
     1
 62
     7
176
     1
 90
        1
176
     1
 90
        4
176
     1
 62
     7
176
     1
 62
   257
176
     1
 90
        1
176
     1
 90
        1
176
     1
 40
1.0
176
     1
 90
        8
176
     1
 62
     7
176
     1
 40
1.0
176
     1
 90
        1
176
     1
 90
        6
176
     1
 90
        2
176
     1
 62
     7
176
     1
 90
        5
176
     1
 90
        0
176
     1
 90
        0
176
     1
290
     0
176
     1
 90
        1
176
     1
 40
50.0
176
     1
 90
        0
176
     1
290
     0
176
     1
290
     1
176
     1
290
     1
176
     1
290
     0
176
     1
290
     0
176
     1
290
     0
176
     1
290
     0
176
     1
290
     0
176
     1
290
     0
176
     1
 90
       50
176
     1
 40
0.0
176
     1
 40
1.0
176
     1
 90
        0
176
     1
 62
    18
420
        0
176
     1
 90
       50
176
     1
 90
        3
176
     1
 62
     5
420
      255
176
     1
290
     0
176
     1
 90
       50
176
     1
 90
       50
176
     1
 90
       50
176
     1
290
     0
176
     1
 90
       50
176
     1
 62
   256
176
     0
 40
1.0
176
     0
 90
        2
176
     1
  1
strokes_ogs.tif
176
     1
290
     0
176
     1
 40
1.0
176
     1
 40
1.0
176
     1
  0
VISUALSTYLE
  5
69A
102
{ACAD_REACTORS
330
68A
102
}
330
68A
100
AcDbVisualStyle
  2
ColorChange
 70
    16
177
     3
291
     1
 70
    58
 90
        2
176
     1
 90
        2
176
     1
 90
        3
176
     1
 90
        0
176
     1
 40
0.6
176
     1
 40
30.0
176
     1
 62
     8
176
     1
 90
        1
176
     1
 90
        4
176
     1
 62
     7
176
     1
 62
   257
176
     1
 90
        1
176
     1
 90
        1
176
     1
 40
1.0
176
     1
 90
        8
176
     1
 62
     8
176
     1
 40
1.0
176
     1
 90
        1
176
     1
 90
        6
176
     1
 90
        2
176
     1
 62
     7
176
     1
 90
        5
176
     1
 90
        0
176
     1
 90
        0
176
     1
290
     0
176
     1
 90
        1
176
     1
 40
0.0
176
     1
 90
        0
176
     1
290
     0
176
     1
290
     1
176
     1
290
     1
176
     1
290
     0
176
     1
290
     0
176
     1
290
     0
176
     1
290
     0
176
     1
290
     0
176
     1
290
     0
176
     1
 90
       50
176
     1
 40
0.0
176
     1
 40
1.0
176
     1
 90
        0
176
     1
 62
    18
420
        0
176
     1
 90
       50
176
     1
 90
        3
176
     1
 62
     5
420
      255
176
     1
290
     0
176
     1
 90
       50
176
     1
 90
       50
176
     1
 90
       50
176
     1
290
     0
176
     1
 90
       50
176
     1
 62
   256
176
     0
 40
1.0
176
     0
 90
        2
176
     1
  1
strokes_ogs.tif
176
     1
290
     0
176
     1
 40
1.0
176
     1
 40
1.0
176
     1
  0
VISUALSTYLE
  5
693
102
{ACAD_REACTORS
330
68A
102
}
330
68A
100
AcDbVisualStyle
  2
Conceptual
 70
     9
177
     3
291
     0
 70
    58
 90
        3
176
     1
 90
        2
176
     1
 90
        0
176
     1
 90
        0
176
     1
 40
0.6
176
     1
 40
30.0
176
     1
 62
     7
176
     1
 90
        2
176
     1
 90
        2
176
     1
 62
     7
176
     1
 62
   257
176
     1
 90
        1
176
     1
 90
        1
176
     1
 40
40.0
176
     1
 90
        8
176
     1
 62
     7
176
     1
 40
1.0
176
     1
 90
        1
176
     1
 90
        6
176
     1
 90
        2
176
     1
 62
     7
176
     1
 90
        3
176
     1
 90
        0
176
     1
 90
        0
176
     1
290
     0
176
     1
 90
        1
176
     1
 40
0.0
176
     1
 90
        0
176
     1
290
     0
176
     1
290
     1
176
     1
290
     1
176
     1
290
     0
176
     1
290
     0
176
     1
290
     0
176
     1
290
     0
176
     1
290
     0
176
     1
290
     0
176
     1
 90
       50
176
     1
 40
0.0
176
     1
 40
1.0
176
     1
 90
        0
176
     1
 62
    18
420
        0
176
     1
 90
       50
176
     1
 90
        3
176
     1
 62
     5
420
      255
176
     1
290
     0
176
     1
 90
       50
176
     1
 90
       50
176
     1
 90
       50
176
     1
290
     0
176
     1
 90
       50
176
     1
 62
   256
176
     0
 40
1.0
176
     0
 90
        2
176
     1
  1
strokes_ogs.tif
176
     1
290
     0
176
     1
 40
1.0
176
     1
 40
1.0
176
     1
  0
VISUALSTYLE
  5
695
102
{ACAD_REACTORS
330
68A
102
}
330
68A
100
AcDbVisualStyle
  2
Dim
 70
    11
177
     3
291
     1
 70
    58
 90
        2
176
     1
 90
        2
176
     1
 90
        0
176
     1
 90
        0
176
     1
 40
0.6
176
     1
 40
30.0
176
     1
 62
     7
176
     1
 90
        1
176
     1
 90
        4
176
     1
 62
     7
176
     1
 62
   257
176
     1
 90
        1
176
     1
 90
        1
176
     1
 40
1.0
176
     1
 90
        8
176
     1
 62
     7
176
     1
 40
1.0
176
     1
 90
        1
176
     1
 90
        6
176
     1
 90
        2
176
     1
 62
     7
176
     1
 90
        5
176
     1
 90
        0
176
     1
 90
        0
176
     1
290
     0
176
     1
 90
        1
176
     1
 40
-50.0
176
     1
 90
        0
176
     1
290
     0
176
     1
290
     1
176
     1
290
     1
176
     1
290
     0
176
     1
290
     0
176
     1
290
     0
176
     1
290
     0
176
     1
290
     0
176
     1
290
     0
176
     1
 90
       50
176
     1
 40
0.0
176
     1
 40
1.0
176
     1
 90
        0
176
     1
 62
    18
420
        0
176
     1
 90
       50
176
     1
 90
        3
176
     1
 62
     5
420
      255
176
     1
290
     0
176
     1
 90
       50
176
     1
 90
       50
176
     1
 90
       50
176
     1
290
     0
176
     1
 90
       50
176
     1
 62
   256
176
     0
 40
1.0
176
     0
 90
        2
176
     1
  1
strokes_ogs.tif
176
     1
290
     0
176
     1
 40
1.0
176
     1
 40
1.0
176
     1
  0
VISUALSTYLE
  5
C88
102
{ACAD_REACTORS
330
68A
102
}
330
68A
100
AcDbVisualStyle
  2
EdgeColorOff
 70
    22
177
     3
291
     1
 70
    58
 90
        2
176
     0
 90
        2
176
     0
 90
        0
176
     0
 90
        0
176
     0
 40
0.6
176
     0
 40
30.0
176
     0
 62
     7
420
 16777215
176
     0
 90
        1
176
     0
 90
        4
176
     0
 62
     7
176
     0
 62
   257
176
     0
 90
        1
176
     0
 90
        1
176
     0
 40
1.0
176
     0
 90
        8
176
     2
 62
     7
176
     0
 40
1.0
176
     0
 90
        1
176
     0
 90
        6
176
     0
 90
        2
176
     0
 62
     7
176
     0
 90
        5
176
     0
 90
        0
176
     0
 90
        0
176
     0
290
     0
176
     0
 90
        1
176
     0
 40
0.0
176
     0
 90
        0
176
     0
290
     0
176
     1
290
     1
176
     1
290
     1
176
     1
290
     0
176
     1
290
     0
176
     1
290
     0
176
     1
290
     0
176
     1
290
     0
176
     1
290
     0
176
     1
 90
       50
176
     1
 40
0.0
176
     1
 40
1.0
176
     1
 90
        0
176
     1
 62
    18
420
        0
176
     1
 90
       50
176
     1
 90
        3
176
     1
 62
     5
420
      255
176
     1
290
     0
176
     1
 90
       50
176
     1
 90
       50
176
     1
 90
       50
176
     1
290
     0
176
     1
 90
       50
176
     1
 62
   256
176
     0
 40
1.0
176
     0
 90
        2
176
     1
  1
strokes_ogs.tif
176
     1
290
     0
176
     1
 40
1.0
176
     1
 40
1.0
176
     1
  0
VISUALSTYLE
  5
699
102
{ACAD_REACTORS
330
68A
102
}
330
68A
100
AcDbVisualStyle
  2
Facepattern
 70
    15
177
     3
291
     1
 70
    58
 90
        2
176
     1
 90
        2
176
     1
 90
        0
176
     1
 90
        0
176
     1
 40
0.6
176
     1
 40
30.0
176
     1
 62
     7
176
     1
 90
        1
176
     1
 90
        4
176
     1
 62
     7
176
     1
 62
   257
176
     1
 90
        1
176
     1
 90
        1
176
     1
 40
1.0
176
     1
 90
        8
176
     1
 62
     7
176
     1
 40
1.0
176
     1
 90
        1
176
     1
 90
        6
176
     1
 90
        2
176
     1
 62
     7
176
     1
 90
        5
176
     1
 90
        0
176
     1
 90
        0
176
     1
290
     0
176
     1
 90
        1
176
     1
 40
0.0
176
     1
 90
        0
176
     1
290
     0
176
     1
290
     1
176
     1
290
     1
176
     1
290
     0
176
     1
290
     0
176
     1
290
     0
176
     1
290
     0
176
     1
290
     0
176
     1
290
     0
176
     1
 90
       50
176
     1
 40
0.0
176
     1
 40
1.0
176
     1
 90
        0
176
     1
 62
    18
420
        0
176
     1
 90
       50
176
     1
 90
        3
176
     1
 62
     5
420
      255
176
     1
290
     0
176
     1
 90
       50
176
     1
 90
       50
176
     1
 90
       50
176
     1
290
     0
176
     1
 90
       50
176
     1
 62
   256
176
     0
 40
1.0
176
     0
 90
        2
176
     1
  1
strokes_ogs.tif
176
     1
290
     0
176
     1
 40
1.0
176
     1
 40
1.0
176
     1
  0
VISUALSTYLE
  5
68B
102
{ACAD_REACTORS
330
68A
102
}
330
68A
100
AcDbVisualStyle
  2
Flat
 70
     0
177
     3
291
     1
 70
    58
 90
        2
176
     1
 90
        1
176
     1
 90
        1
176
     1
 90
        2
176
     1
 40
0.6
176
     1
 40
30.0
176
     1
 62
     7
176
     1
 90
        0
176
     1
 90
        4
176
     1
 62
     7
176
     1
 62
   257
176
     1
 90
        1
176
     1
 90
        1
176
     1
 40
1.0
176
     1
 90
        8
176
     1
 62
     7
176
     1
 40
1.0
176
     1
 90
        1
176
     1
 90
        6
176
     1
 90
        2
176
     1
 62
     7
176
     1
 90
        5
176
     1
 90
        0
176
     1
 90
        0
176
     1
290
     0
176
     1
 90
       13
176
     1
 40
0.0
176
     1
 90
        0
176
     1
290
     0
176
     1
290
     1
176
     1
290
     1
176
     1
290
     0
176
     1
290
     0
176
     1
290
     0
176
     1
290
     0
176
     1
290
     0
176
     1
290
     0
176
     1
 90
       50
176
     1
 40
0.0
176
     1
 40
1.0
176
     1
 90
        0
176
     1
 62
    18
420
        0
176
     1
 90
       50
176
     1
 90
        3
176
     1
 62
     5
420
      255
176
     1
290
     0
176
     1
 90
       50
176
     1
 90
       50
176
     1
 90
       50
176
     1
290
     0
176
     1
 90
       50
176
     1
 62
   256
176
     0
 40
1.0
176
     0
 90
        2
176
     1
  1
strokes_ogs.tif
176
     1
290
     0
176
     1
 40
1.0
176
     1
 40
1.0
176
     1
  0
VISUALSTYLE
  5
68C
102
{ACAD_REACTORS
330
68A
102
}
330
68A
100
AcDbVisualStyle
  2
FlatWithEdges
 70
     1
177
     3
291
     1
 70
    58
 90
        2
176
     1
 90
        1
176
     1
 90
        1
176
     1
 90
        2
176
     1
 40
0.6
176
     1
 40
30.0
176
     1
 62
     7
176
     1
 90
        1
176
     1
 90
        4
176
     1
 62
     7
176
     1
 62
   257
176
     1
 90
        1
176
     1
 90
        1
176
     1
 40
1.0
176
     1
 90
        0
176
     1
 62
   257
176
     1
 40
1.0
176
     1
 90
        1
176
     1
 90
        6
176
     1
 90
        2
176
     1
 62
     7
176
     1
 90
        5
176
     1
 90
        0
176
     1
 90
        0
176
     1
290
     0
176
     1
 90
       13
176
     1
 40
0.0
176
     1
 90
        0
176
     1
290
     0
176
     1
290
     1
176
     1
290
     1
176
     1
290
     0
176
     1
290
     0
176
     1
290
     0
176
     1
290
     0
176
     1
290
     0
176
     1
290
     0
176
     1
 90
       50
176
     1
 40
0.0
176
     1
 40
1.0
176
     1
 90
        0
176
     1
 62
    18
420
        0
176
     1
 90
       50
176
     1
 90
        3
176
     1
 62
     5
420
      255
176
     1
290
     0
176
     1
 90
       50
176
     1
 90
       50
176
     1
 90
       50
176
     1
290
     0
176
     1
 90
       50
176
     1
 62
   256
176
     0
 40
1.0
176
     0
 90
        2
176
     1
  1
strokes_ogs.tif
176
     1
290
     0
176
     1
 40
1.0
176
     1
 40
1.0
176
     1
  0
VISUALSTYLE
  5
68D
102
{ACAD_REACTORS
330
68A
102
}
330
68A
100
AcDbVisualStyle
  2
Gouraud
 70
     2
177
     3
291
     1
 70
    58
 90
        2
176
     1
 90
        2
176
     1
 90
        1
176
     1
 90
        2
176
     1
 40
0.6
176
     1
 40
30.0
176
     1
 62
     7
176
     1
 90
        0
176
     1
 90
        4
176
     1
 62
     7
176
     1
 62
   257
176
     1
 90
        1
176
     1
 90
        1
176
     1
 40
1.0
176
     1
 90
        0
176
     1
 62
     7
176
     1
 40
1.0
176
     1
 90
        1
176
     1
 90
        6
176
     1
 90
        2
176
     1
 62
     7
176
     1
 90
        5
176
     1
 90
        0
176
     1
 90
        0
176
     1
290
     0
176
     1
 90
       13
176
     1
 40
0.0
176
     1
 90
        0
176
     1
290
     0
176
     1
290
     1
176
     1
290
     1
176
     1
290
     0
176
     1
290
     0
176
     1
290
     0
176
     1
290
     0
176
     1
290
     0
176
     1
290
     0
176
     1
 90
       50
176
     1
 40
0.0
176
     1
 40
1.0
176
     1
 90
        0
176
     1
 62
    18
420
        0
176
     1
 90
       50
176
     1
 90
        3
176
     1
 62
     5
420
      255
176
     1
290
     0
176
     1
 90
       50
176
     1
 90
       50
176
     1
 90
       50
176
     1
290
     0
176
     1
 90
       50
176
     1
 62
   256
176
     0
 40
1.0
176
     0
 90
        2
176
     1
  1
strokes_ogs.tif
176
     1
290
     0
176
     1
 40
1.0
176
     1
 40
1.0
176
     1
  0
VISUALSTYLE
  5
68E
102
{ACAD_REACTORS
330
68A
102
}
330
68A
100
AcDbVisualStyle
  2
GouraudWithEdges
 70
     3
177
     3
291
     1
 70
    58
 90
        2
176
     1
 90
        2
176
     1
 90
        1
176
     1
 90
        2
176
     1
 40
0.6
176
     1
 40
30.0
176
     1
 62
     7
176
     1
 90
        1
176
     1
 90
        4
176
     1
 62
     7
176
     1
 62
   257
176
     1
 90
        1
176
     1
 90
        1
176
     1
 40
1.0
176
     1
 90
        0
176
     1
 62
   257
176
     1
 40
1.0
176
     1
 90
        1
176
     1
 90
        6
176
     1
 90
        2
176
     1
 62
     7
176
     1
 90
        5
176
     1
 90
        0
176
     1
 90
        0
176
     1
290
     0
176
     1
 90
       13
176
     1
 40
0.0
176
     1
 90
        0
176
     1
290
     0
176
     1
290
     1
176
     1
290
     1
176
     1
290
     0
176
     1
290
     0
176
     1
290
     0
176
     1
290
     0
176
     1
290
     0
176
     1
290
     0
176
     1
 90
       50
176
     1
 40
0.0
176
     1
 40
1.0
176
     1
 90
        0
176
     1
 62
    18
420
        0
176
     1
 90
       50
176
     1
 90
        3
176
     1
 62
     5
420
      255
176
     1
290
     0
176
     1
 90
       50
176
     1
 90
       50
176
     1
 90
       50
176
     1
290
     0
176
     1
 90
       50
176
     1
 62
   256
176
     0
 40
1.0
176
     0
 90
        2
176
     1
  1
strokes_ogs.tif
176
     1
290
     0
176
     1
 40
1.0
176
     1
 40
1.0
176
     1
  0
VISUALSTYLE
  5
C80
102
{ACAD_REACTORS
330
68A
102
}
330
68A
100
AcDbVisualStyle
  2
Hidden
 70
     6
177
     3
291
     0
 70
    58
 90
        1
176
     1
 90
        2
176
     1
 90
        2
176
     1
 90
        0
176
     1
 40
0.6
176
     1
 40
30.0
176
     1
 62
     7
420
 16777215
176
     1
 90
        2
176
     1
 90
        2
176
     1
 62
     7
176
     1
 62
   257
176
     1
 90
        2
176
     1
 90
        1
176
     1
 40
40.0
176
     1
 90
        0
176
     1
 62
   257
176
     1
 40
1.0
176
     1
 90
        1
176
     1
 90
        6
176
     1
 90
        2
176
     1
 62
     7
176
     1
 90
        3
176
     1
 90
        0
176
     1
 90
        0
176
     1
290
     0
176
     1
 90
        1
176
     1
 40
0.0
176
     1
 90
        0
176
     1
290
     0
176
     1
290
     1
176
     1
290
     1
176
     1
290
     0
176
     1
290
     0
176
     1
290
     0
176
     1
290
     0
176
     1
290
     0
176
     1
290
     0
176
     1
 90
       50
176
     1
 40
0.0
176
     1
 40
1.0
176
     1
 90
        0
176
     1
 62
    18
420
        0
176
     1
 90
       50
176
     1
 90
        3
176
     1
 62
     5
420
      255
176
     1
290
     0
176
     1
 90
       50
176
     1
 90
       50
176
     1
 90
       50
176
     1
290
     0
176
     1
 90
       50
176
     1
 62
   256
176
     0
 40
1.0
176
     0
 90
        2
176
     1
  1
strokes_ogs.tif
176
     1
290
     0
176
     1
 40
1.0
176
     1
 40
1.0
176
     1
  0
VISUALSTYLE
  5
C86
102
{ACAD_REACTORS
330
68A
102
}
330
68A
100
AcDbVisualStyle
  2
JitterOff
 70
    20
177
     3
291
     1
 70
    58
 90
        2
176
     0
 90
        2
176
     0
 90
        0
176
     0
 90
        0
176
     0
 40
0.6
176
     0
 40
30.0
176
     0
 62
     7
420
 16777215
176
     0
 90
        1
176
     0
 90
        4
176
     0
 62
     7
176
     0
 62
   257
176
     0
 90
        1
176
     0
 90
        1
176
     0
 40
1.0
176
     0
 90
       10
176
     2
 62
     7
176
     0
 40
1.0
176
     0
 90
        1
176
     0
 90
        6
176
     0
 90
        2
176
     0
 62
     7
176
     0
 90
        5
176
     0
 90
        0
176
     0
 90
        0
176
     0
290
     0
176
     0
 90
        1
176
     0
 40
0.0
176
     0
 90
        0
176
     0
290
     0
176
     1
290
     1
176
     1
290
     1
176
     1
290
     0
176
     1
290
     0
176
     1
290
     0
176
     1
290
     0
176
     1
290
     0
176
     1
290
     0
176
     1
 90
       50
176
     1
 40
0.0
176
     1
 40
1.0
176
     1
 90
        0
176
     1
 62
    18
420
        0
176
     1
 90
       50
176
     1
 90
        3
176
     1
 62
     5
420
      255
176
     1
290
     0
176
     1
 90
       50
176
     1
 90
       50
176
     1
 90
       50
176
     1
290
     0
176
     1
 90
       50
176
     1
 62
   256
176
     0
 40
1.0
176
     0
 90
        2
176
     1
  1
strokes_ogs.tif
176
     1
290
     0
176
     1
 40
1.0
176
     1
 40
1.0
176
     1
  0
VISUALSTYLE
  5
698
102
{ACAD_REACTORS
330
68A
102
}
330
68A
100
AcDbVisualStyle
  2
Linepattern
 70
    14
177
     3
291
     1
 70
    58
 90
        2
176
     1
 90
        2
176
     1
 90
        0
176
     1
 90
        0
176
     1
 40
0.6
176
     1
 40
30.0
176
     1
 62
     7
176
     1
 90
        1
176
     1
 90
        4
176
     1
 62
     7
176
     1
 62
   257
176
     1
 90
        7
176
     1
 90
        7
176
     1
 40
1.0
176
     1
 90
        8
176
     1
 62
     7
176
     1
 40
1.0
176
     1
 90
        1
176
     1
 90
        6
176
     1
 90
        2
176
     1
 62
     7
176
     1
 90
        5
176
     1
 90
        0
176
     1
 90
        0
176
     1
290
     0
176
     1
 90
        1
176
     1
 40
0.0
176
     1
 90
        0
176
     1
290
     0
176
     1
290
     1
176
     1
290
     1
176
     1
290
     0
176
     1
290
     0
176
     1
290
     0
176
     1
290
     0
176
     1
290
     0
176
     1
290
     0
176
     1
 90
       50
176
     1
 40
0.0
176
     1
 40
1.0
176
     1
 90
        0
176
     1
 62
    18
420
        0
176
     1
 90
       50
176
     1
 90
        3
176
     1
 62
     5
420
      255
176
     1
290
     0
176
     1
 90
       50
176
     1
 90
       50
176
     1
 90
       50
176
     1
290
     0
176
     1
 90
       50
176
     1
 62
   256
176
     0
 40
1.0
176
     0
 90
        2
176
     1
  1
strokes_ogs.tif
176
     1
290
     0
176
     1
 40
1.0
176
     1
 40
1.0
176
     1
  0
VISUALSTYLE
  5
C87
102
{ACAD_REACTORS
330
68A
102
}
330
68A
100
AcDbVisualStyle
  2
OverhangOff
 70
    21
177
     3
291
     1
 70
    58
 90
        2
176
     0
 90
        2
176
     0
 90
        0
176
     0
 90
        0
176
     0
 40
0.6
176
     0
 40
30.0
176
     0
 62
     7
420
 16777215
176
     0
 90
        1
176
     0
 90
        4
176
     0
 62
     7
176
     0
 62
   257
176
     0
 90
        1
176
     0
 90
        1
176
     0
 40
1.0
176
     0
 90
        9
176
     2
 62
     7
176
     0
 40
1.0
176
     0
 90
        1
176
     0
 90
        6
176
     0
 90
        2
176
     0
 62
     7
176
     0
 90
        5
176
     0
 90
        0
176
     0
 90
        0
176
     0
290
     0
176
     0
 90
        1
176
     0
 40
0.0
176
     0
 90
        0
176
     0
290
     0
176
     1
290
     1
176
     1
290
     1
176
     1
290
     0
176
     1
290
     0
176
     1
290
     0
176
     1
290
     0
176
     1
290
     0
176
     1
290
     0
176
     1
 90
       50
176
     1
 40
0.0
176
     1
 40
1.0
176
     1
 90
        0
176
     1
 62
    18
420
        0
176
     1
 90
       50
176
     1
 90
        3
176
     1
 62
     5
420
      255
176
     1
290
     0
176
     1
 90
       50
176
     1
 90
       50
176
     1
 90
       50
176
     1
290
     0
176
     1
 90
       50
176
     1
 62
   256
176
     0
 40
1.0
176
     0
 90
        2
176
     1
  1
strokes_ogs.tif
176
     1
290
     0
176
     1
 40
1.0
176
     1
 40
1.0
176
     1
  0
VISUALSTYLE
  5
694
102
{ACAD_REACTORS
330
68A
102
}
330
68A
100
AcDbVisualStyle
  2
Realistic
 70
     8
177
     3
291
     0
 70
    58
 90
        2
176
     1
 90
        2
176
     1
 90
        0
176
     1
 90
        0
176
     1
 40
0.6
176
     1
 40
30.0
176
     1
 62
     7
176
     1
 90
        1
176
     1
 90
        0
176
     1
 62
     7
176
     1
 62
   257
176
     1
 90
        1
176
     1
 90
        1
176
     1
 40
1.0
176
     1
 90
        8
176
     1
 62
     8
176
     1
 40
1.0
176
     1
 90
        1
176
     1
 90
        6
176
     1
 90
        2
176
     1
 62
     7
176
     1
 90
        5
176
     1
 90
        0
176
     1
 90
        0
176
     1
290
     0
176
     1
 90
       13
176
     1
 40
0.0
176
     1
 90
        0
176
     1
290
     0
176
     1
290
     1
176
     1
290
     1
176
     1
290
     0
176
     1
290
     0
176
     1
290
     0
176
     1
290
     0
176
     1
290
     0
176
     1
290
     0
176
     1
 90
       50
176
     1
 40
0.0
176
     1
 40
1.0
176
     1
 90
        0
176
     1
 62
    18
420
        0
176
     1
 90
       50
176
     1
 90
        3
176
     1
 62
     5
420
      255
176
     1
290
     0
176
     1
 90
       50
176
     1
 90
       50
176
     1
 90
       50
176
     1
290
     0
176
     1
 90
       50
176
     1
 62
   256
176
     0
 40
1.0
176
     0
 90
        2
176
     1
  1
strokes_ogs.tif
176
     1
290
     0
176
     1
 40
1.0
176
     1
 40
1.0
176
     1
  0
VISUALSTYLE
  5
C85
102
{ACAD_REACTORS
330
68A
102
}
330
68A
100
AcDbVisualStyle
  2
Shaded
 70
    27
177
     3
291
     0
 70
    58
 90
        2
176
     1
 90
        2
176
     1
 90
        1
176
     1
 90
        2
176
     1
 40
0.6
176
     1
 40
30.0
176
     1
 62
     7
420
 16777215
176
     1
 90
        0
176
     1
 90
        4
176
     1
 62
     7
176
     1
 62
   257
176
     1
 90
        1
176
     1
 90
        1
176
     1
 40
1.0
176
     1
 90
        8
176
     1
 62
   257
176
     1
 40
1.0
176
     1
 90
        1
176
     1
 90
        6
176
     1
 90
        2
176
     1
 62
     8
420
  7895160
176
     1
 90
        3
176
     1
 90
        0
176
     1
 90
        0
176
     1
290
     0
176
     1
 90
        5
176
     1
 40
0.0
176
     1
 90
        0
176
     1
290
     0
176
     1
290
     1
176
     1
290
     1
176
     1
290
     0
176
     1
290
     0
176
     1
290
     0
176
     1
290
     0
176
     1
290
     0
176
     1
290
     0
176
     1
 90
       50
176
     1
 40
0.0
176
     1
 40
1.0
176
     1
 90
        0
176
     1
 62
    18
420
        0
176
     1
 90
       50
176
     1
 90
        3
176
     1
 62
     5
420
      255
176
     1
290
     0
176
     1
 90
       50
176
     1
 90
       50
176
     1
 90
       50
176
     1
290
     0
176
     1
 90
       50
176
     1
 62
   256
176
     0
 40
1.0
176
     0
 90
        2
176
     1
  1
strokes_ogs.tif
176
     1
290
     0
176
     1
 40
1.0
176
     1
 40
1.0
176
     1
  0
VISUALSTYLE
  5
C84
102
{ACAD_REACTORS
330
68A
102
}
330
68A
100
AcDbVisualStyle
  2
Shaded with edges
 70
    26
177
     3
291
     0
 70
    58
 90
        2
176
     1
 90
        2
176
     1
 90
        1
176
     1
 90
        2
176
     1
 40
0.6
176
     1
 40
30.0
176
     1
 62
     7
420
 16777215
176
     1
 90
        1
176
     1
 90
        2
176
     1
 62
     7
176
     1
 62
   257
176
     1
 90
        2
176
     1
 90
        1
176
     1
 40
1.0
176
     1
 90
        8
176
     1
 62
   257
176
     1
 40
1.0
176
     1
 90
        1
176
     1
 90
        6
176
     1
 90
        2
176
     1
 62
     7
176
     1
 90
        3
176
     1
 90
        0
176
     1
 90
        0
176
     1
290
     0
176
     1
 90
        5
176
     1
 40
0.0
176
     1
 90
        0
176
     1
290
     0
176
     1
290
     1
176
     1
290
     1
176
     1
290
     0
176
     1
290
     0
176
     1
290
     0
176
     1
290
     0
176
     1
290
     0
176
     1
290
     0
176
     1
 90
       50
176
     1
 40
0.0
176
     1
 40
1.0
176
     1
 90
        0
176
     1
 62
    18
420
        0
176
     1
 90
       50
176
     1
 90
        3
176
     1
 62
     5
420
      255
176
     1
290
     0
176
     1
 90
       50
176
     1
 90
       50
176
     1
 90
       50
176
     1
290
     0
176
     1
 90
       50
176
     1
 62
   256
176
     0
 40
1.0
176
     0
 90
        2
176
     1
  1
strokes_ogs.tif
176
     1
290
     0
176
     1
 40
1.0
176
     1
 40
1.0
176
     1
  0
VISUALSTYLE
  5
C81
102
{ACAD_REACTORS
330
68A
102
}
330
68A
100
AcDbVisualStyle
  2
Shades of Gray
 70
    23
177
     3
291
     0
 70
    58
 90
        2
176
     1
 90
        2
176
     1
 90
        3
176
     1
 90
        0
176
     1
 40
0.6
176
     1
 40
30.0
176
     1
 62
     7
420
 16777215
176
     1
 90
        2
176
     1
 90
        2
176
     1
 62
     7
176
     1
 62
     7
176
     1
 90
        1
176
     1
 90
        1
176
     1
 40
40.0
176
     1
 90
        8
176
     1
 62
     7
176
     1
 40
1.0
176
     1
 90
        1
176
     1
 90
        6
176
     1
 90
        2
176
     1
 62
     7
176
     1
 90
        3
176
     1
 90
        0
176
     1
 90
        0
176
     1
290
     0
176
     1
 90
        1
176
     1
 40
0.0
176
     1
 90
        0
176
     1
290
     0
176
     1
290
     1
176
     1
290
     1
176
     1
290
     0
176
     1
290
     0
176
     1
290
     0
176
     1
290
     0
176
     1
290
     0
176
     1
290
     0
176
     1
 90
       50
176
     1
 40
0.0
176
     1
 40
1.0
176
     1
 90
        0
176
     1
 62
    18
420
        0
176
     1
 90
       50
176
     1
 90
        3
176
     1
 62
     5
420
      255
176
     1
290
     0
176
     1
 90
       50
176
     1
 90
       50
176
     1
 90
       50
176
     1
290
     0
176
     1
 90
       50
176
     1
 62
   256
176
     0
 40
1.0
176
     0
 90
        2
176
     1
  1
strokes_ogs.tif
176
     1
290
     0
176
     1
 40
1.0
176
     1
 40
1.0
176
     1
  0
VISUALSTYLE
  5
C82
102
{ACAD_REACTORS
330
68A
102
}
330
68A
100
AcDbVisualStyle
  2
Sketchy
 70
    24
177
     3
291
     0
 70
    58
 90
        1
176
     1
 90
        2
176
     1
 90
        2
176
     1
 90
        0
176
     1
 40
0.6
176
     1
 40
30.0
176
     1
 62
     7
420
 16777215
176
     1
 90
        2
176
     1
 90
        2
176
     1
 62
     7
176
     1
 62
     7
176
     1
 90
        1
176
     1
 90
        1
176
     1
 40
40.0
176
     1
 90
       11
176
     1
 62
     7
176
     1
 40
1.0
176
     1
 90
        1
176
     1
 90
        6
176
     1
 90
        2
176
     1
 62
     7
176
     1
 90
        6
176
     1
 90
        0
176
     1
 90
        0
176
     1
290
     0
176
     1
 90
        1
176
     1
 40
0.0
176
     1
 90
        0
176
     1
290
     0
176
     1
290
     1
176
     1
290
     1
176
     1
290
     0
176
     1
290
     0
176
     1
290
     0
176
     1
290
     0
176
     1
290
     0
176
     1
290
     0
176
     1
 90
       50
176
     1
 40
0.0
176
     1
 40
1.0
176
     1
 90
        0
176
     1
 62
    18
420
        0
176
     1
 90
       50
176
     1
 90
        3
176
     1
 62
     5
420
      255
176
     1
290
     0
176
     1
 90
       50
176
     1
 90
       50
176
     1
 90
       50
176
     1
290
     0
176
     1
 90
       50
176
     1
 62
   256
176
     0
 40
1.0
176
     0
 90
        2
176
     1
  1
strokes_ogs.tif
176
     1
290
     0
176
     1
 40
1.0
176
     1
 40
1.0
176
     1
  0
VISUALSTYLE
  5
697
102
{ACAD_REACTORS
330
68A
102
}
330
68A
100
AcDbVisualStyle
  2
Thicken
 70
    13
177
     3
291
     1
 70
    58
 90
        2
176
     1
 90
        2
176
     1
 90
        0
176
     1
 90
        0
176
     1
 40
0.6
176
     1
 40
30.0
176
     1
 62
     7
176
     1
 90
        1
176
     1
 90
        4
176
     1
 62
     7
176
     1
 62
   257
176
     1
 90
        1
176
     1
 90
        1
176
     1
 40
1.0
176
     1
 90
       12
176
     1
 62
     7
176
     1
 40
1.0
176
     1
 90
        1
176
     1
 90
        6
176
     1
 90
        2
176
     1
 62
     7
176
     1
 90
        5
176
     1
 90
        0
176
     1
 90
        0
176
     1
290
     0
176
     1
 90
        1
176
     1
 40
0.0
176
     1
 90
        0
176
     1
290
     0
176
     1
290
     1
176
     1
290
     1
176
     1
290
     0
176
     1
290
     0
176
     1
290
     0
176
     1
290
     0
176
     1
290
     0
176
     1
290
     0
176
     1
 90
       50
176
     1
 40
0.0
176
     1
 40
1.0
176
     1
 90
        0
176
     1
 62
    18
420
        0
176
     1
 90
       50
176
     1
 90
        3
176
     1
 62
     5
420
      255
176
     1
290
     0
176
     1
 90
       50
176
     1
 90
       50
176
     1
 90
       50
176
     1
290
     0
176
     1
 90
       50
176
     1
 62
   256
176
     0
 40
1.0
176
     0
 90
        2
176
     1
  1
strokes_ogs.tif
176
     1
290
     0
176
     1
 40
1.0
176
     1
 40
1.0
176
     1
  0
VISUALSTYLE
  5
C7F
102
{ACAD_REACTORS
330
68A
102
}
330
68A
100
AcDbVisualStyle
  2
Wireframe
 70
     5
177
     3
291
     0
 70
    58
 90
        0
176
     1
 90
        2
176
     1
 90
        0
176
     1
 90
        0
176
     1
 40
0.6
176
     1
 40
30.0
176
     1
 62
     7
420
 16777215
176
     1
 90
        1
176
     1
 90
        4
176
     1
 62
     7
176
     1
 62
   257
176
     1
 90
        1
176
     1
 90
        1
176
     1
 40
1.0
176
     1
 90
        0
176
     1
 62
   257
176
     1
 40
1.0
176
     1
 90
        1
176
     1
 90
        6
176
     1
 90
        2
176
     1
 62
     7
176
     1
 90
        3
176
     1
 90
        0
176
     1
 90
        0
176
     1
290
     0
176
     1
 90
        1
176
     1
 40
0.0
176
     1
 90
        0
176
     1
290
     0
176
     1
290
     1
176
     1
290
     1
176
     1
290
     0
176
     1
290
     0
176
     1
290
     0
176
     1
290
     0
176
     1
290
     0
176
     1
290
     0
176
     1
 90
       50
176
     1
 40
0.0
176
     1
 40
1.0
176
     1
 90
        0
176
     1
 62
    18
420
        0
176
     1
 90
       50
176
     1
 90
        3
176
     1
 62
     5
420
      255
176
     1
290
     0
176
     1
 90
       50
176
     1
 90
       50
176
     1
 90
       50
176
     1
290
     0
176
     1
 90
       50
176
     1
 62
   256
176
     0
 40
1.0
176
     0
 90
        2
176
     1
  1
strokes_ogs.tif
176
     1
290
     0
176
     1
 40
1.0
176
     1
 40
1.0
176
     1
  0
VISUALSTYLE
  5
C83
102
{ACAD_REACTORS
330
68A
102
}
330
68A
100
AcDbVisualStyle
  2
X-Ray
 70
    25
177
     3
291
     0
 70
    58
 90
        2
176
     1
 90
        2
176
     1
 90
        1
176
     1
 90
        1
176
     1
 40
0.5
176
     1
 40
30.0
176
     1
 62
     7
420
 16777215
176
     1
 90
        1
176
     1
 90
        0
176
     1
 62
     7
176
     1
 62
   257
176
     1
 90
        1
176
     1
 90
        1
176
     1
 40
1.0
176
     1
 90
        8
176
     1
 62
     7
176
     1
 40
1.0
176
     1
 90
        1
176
     1
 90
        6
176
     1
 90
        2
176
     1
 62
     7
176
     1
 90
        3
176
     1
 90
        0
176
     1
 90
        0
176
     1
290
     0
176
     1
 90
       13
176
     1
 40
0.0
176
     1
 90
        0
176
     1
290
     0
176
     1
290
     1
176
     1
290
     1
176
     1
290
     0
176
     1
290
     0
176
     1
290
     0
176
     1
290
     0
176
     1
290
     0
176
     1
290
     0
176
     1
 90
       50
176
     1
 40
0.0
176
     1
 40
1.0
176
     1
 90
        0
176
     1
 62
    18
420
        0
176
     1
 90
       50
176
     1
 90
        3
176
     1
 62
     5
420
      255
176
     1
290
     0
176
     1
 90
       50
176
     1
 90
       50
176
     1
 90
       50
176
     1
290
     0
176
     1
 90
       50
176
     1
 62
   256
176
     0
 40
1.0
176
     0
 90
        2
176
     1
  1
strokes_ogs.tif
176
     1
290
     0
176
     1
 40
1.0
176
     1
 40
1.0
176
     1
  0
DICTIONARYVAR
  5
CE6
102
{ACAD_REACTORS
330
342
102
}
330
342
100
DictionaryVariables
280
     0
  1
1:1
  0
DICTIONARYVAR
  5
CE4
102
{ACAD_REACTORS
330
342
102
}
330
342
100
DictionaryVariables
280
     0
  1
STANDARD
  0
DICTIONARYVAR
  5
799
102
{ACAD_REACTORS
330
342
102
}
330
342
100
DictionaryVariables
280
     0
  1
STANDARD
  0
DICTIONARYVAR
  5
E28
102
{ACAD_REACTORS
330
342
102
}
330
342
100
DictionaryVariables
280
     0
  1
ASME Y14.35 - 1987
  0
DICTIONARYVAR
  5
E29
102
{ACAD_REACTORS
330
342
102
}
330
342
100
DictionaryVariables
280
     0
  1
ASME Y14.3 - 2003
  0
DICTIONARYVAR
  5
344
102
{ACAD_REACTORS
330
342
102
}
330
342
100
DictionaryVariables
280
     0
  1
1
  0
DICTIONARYVAR
  5
343
102
{ACAD_REACTORS
330
342
102
}
330
342
100
DictionaryVariables
280
     0
  1
1
  0
DICTIONARYVAR
  5
79A
102
{ACAD_REACTORS
330
342
102
}
330
342
100
DictionaryVariables
280
     0
  1
0
  0
DICTIONARYVAR
  5
CE8
102
{ACAD_REACTORS
330
342
102
}
330
342
100
DictionaryVariables
280
     0
  1
1
  0
DICTIONARYVAR
  5
CE9
102
{ACAD_REACTORS
330
342
102
}
330
342
100
DictionaryVariables
280
     0
  1
15
  0
DICTIONARYVAR
  5
CE7
102
{ACAD_REACTORS
330
342
102
}
330
342
100
DictionaryVariables
280
     0
  1
0
  0
DICTIONARYVAR
  5
CE5
102
{ACAD_REACTORS
330
342
102
}
330
342
100
DictionaryVariables
280
     0
  1
0
  0
DICTIONARYVAR
  5
455
102
{ACAD_REACTORS
330
342
102
}
330
342
100
DictionaryVariables
280
     0
  1
112
  0
ACAD_PROXY_OBJECT
  5
D22
102
{ACAD_REACTORS
330
D21
102
}
330
D21
100
AcDbProxyObject
 90
      499
 91
      544
 71
    31
 97
      125
 70
     0
162
                 0
161
                84
310
90100057356C1DCE406AAC
 94
        0
  0
DICTIONARY
  5
D2A
102
{ACAD_REACTORS
330
D21
102
}
330
D21
100
AcDbDictionary
281
     1
  3
ANSI
350
D2B
  0
ACAD_PROXY_OBJECT
  5
D00
330
0
100
AcDbProxyObject
 90
      499
 91
      525
 71
    31
 97
      125
 70
     0
162
               234
311
43904010C01340114014C016401340108013C0130014C01240168011400C
161
                34
310
000101420C
330
CFD
 94
        0
  0
ACAD_PROXY_OBJECT
  5
D0F
330
0
100
AcDbProxyObject
 90
      499
 91
      536
 71
    31
 97
      125
 70
     0
162
               212
311
421040134010C01540148014C01500110010441004E0053004900C
161
                32
310
0001010100
330
CFD
 94
        0
  0
ACAD_PROXY_OBJECT
  5
D12
330
0
100
AcDbProxyObject
 90
      499
 91
      536
 71
    31
 97
      125
 70
     0
162
               276
311
431040104010C013C01340140011001180138010401340114010443004F004D005000C
161
                32
310
0001010100
330
CFD
 94
        0
  0
ACAD_PROXY_OBJECT
  5
D13
330
0
100
AcDbProxyObject
 90
      499
 91
      536
 71
    31
 97
      125
 70
     0
162
               340
311
4390401040118013C0130011001140148011001180138010401340114010646006F006C00640065007200C
161
                32
310
0001010100
330
CFD
 94
        0
  0
ACAD_PROXY_OBJECT
  5
D14
330
0
100
AcDbProxyObject
 90
      499
 91
      536
 71
    31
 97
      125
 70
     0
162
               260
311
431040104010401380138013C01100118013801040134011401035F0041005600C
161
                32
310
0001010100
330
CFD
 94
        0
  0
ACAD_PROXY_OBJECT
  5
D15
330
0
100
AcDbProxyObject
 90
      499
 91
      536
 71
    31
 97
      125
 70
     0
162
               756
311
439040104010C013C01340140015801240114015C01300124014C0150012054006F0070000A00460072006F006E0074000A00520069006700680074000A004C006500660074000A0042006F00740074006F006D000A004100750078003100C
161
                32
310
0001010100
330
CFD
 94
        0
  0
ACAD_PROXY_OBJECT
  5
D16
330
0
100
AcDbProxyObject
 90
      499
 91
      525
 71
    31
 97
      125
 70
     0
162
               234
311
439040134014C014C0150014801040130015C01040164014C013C013800C
161
                26
310
0001018C
330
CFD
 94
        0
  0
ACAD_PROXY_OBJECT
  5
D1B
330
0
100
AcDbProxyObject
 90
      499
 91
      539
 71
    31
 97
      125
 70
     0
162
                 0
161
                32
310
0001000000
330
CFD
340
D18
330
D1C
330
D18
 94
        0
  0
ACAD_PROXY_OBJECT
  5
D1C
330
0
100
AcDbProxyObject
 90
      499
 91
      540
 71
    31
 97
      125
 70
     0
162
                90
311
414C800D800E400C400C400C
161
                80
310
0001014140155005540000
330
CFD
330
D1B
330
0
 94
        0
  0
ACAD_PROXY_OBJECT
  5
D1D
330
0
100
AcDbProxyObject
 90
      499
 91
      541
 71
    31
 97
      125
 70
     0
162
                 0
161
               178
310
000100AAAAAA9BF6AE7FA65B1493ABC20E76B4FFFB894C
330
CFD
330
D1C
 94
        0
  0
ACAD_PROXY_OBJECT
  5
D1E
330
0
100
AcDbProxyObject
 90
      499
 91
      542
 71
    31
 97
      125
 70
     0
162
                 0
161
               108
310
0001901422000000000000AAAAAC
330
CFD
330
D1F
330
D1F
330
D1F
330
D1F
330
D1F
330
0
 94
        0
  0
ACAD_PROXY_OBJECT
  5
D1F
330
0
100
AcDbProxyObject
 90
      499
 91
      543
 71
    31
 97
      125
 70
     0
162
                 0
161
                51
310
00010000AAAA8C
330
CFD
330
D1E
330
D1C
 94
        0
  0
DICTIONARY
  5
CF7
102
{ACAD_REACTORS
330
CF6
102
}
330
CF6
100
AcDbDictionary
281
     1
  3
DWGSETTINGS
350
CF8
  3
TRANSSETTINGS
350
CF9
  0
ACAD_PROXY_OBJECT
  5
D3E
102
{ACAD_REACTORS
330
CF6
102
}
330
CF6
100
AcDbProxyObject
 90
      499
 91
      565
 71
    31
 97
      125
 70
     0
162
             15940
311
404C0010441004D005F0030009013100411040134017C00C402404C8010441004D005F0032009013300411040134017C00CC02404D0010441004D005F0034009013500411040134017C00D402404D8010441004D005F0036009013700411040134017C00DC02404E0010441004D005F0038009013900411040134017C00E40
311
2408C80104010541004D005F003100300090234004100415040134017C00C400C402409240140010541004D005F003100320090230004E00415040134017C00C0013802408C40138010541004D005F0031004E0090232004E00415040134017C00C8013802408CC0138010541004D005F0033004E0090234004E0041504013
311
4017C00D0013802408D40138010541004D005F0035004E0090236004E00415040134017C00D8013802408DC0138010541004D005F0037004E0090238004E00415040134017C00E0013802408E40138010541004D005F0039004E00903320041004E00419040134017C00C400C001380240CD001040138010641004D005F003
311
10031004E00903490050004E00419040134017C00C400C80138024112C013001240138010541004D005F0043004C0090449004E0046004F00421040134017C01400104014801140118024154801040120013400D4010641004D005F0042004F0052009045600490045005700421040134017C015801240114015C014C02419
311
0801140120012401380110010641004D005F0049004E00560090554005200410049004C00415040134017C015001480240D2001240110010641004D005F00480049004400903560049005300419040134017C01580124014C024194001040148011001240134010941004D005F00500041005200440049004D009065200450
311
04600440049004D00425040134017C01480114011801100124013402411080120013801580101390041508012001380158014C010642004500480049004E00440041108013C014800C801055200410048004D00350041108013C014800CC01055200410048004D00350041108013C014800D401055200410048004D0035004
311
110C0104013000C8010134004110C0104013000CC010134004110C0104013000D4010134004110C0104013000DC010134004110C011401380138010137004110C01140138015C010137004110C01300124013801044B004C0049004E004110C013C013800C4010130004110C013C013800C8010131004110C013C013800CC0
311
10132004110C013C013800D00101320041110011401500104010134004111001240104011C010135004111001240130012401013500411100124013401400106500041005200440049004D00411100124013401480106520045004600440049004D00411180114013401380101380041518011401340140013801013800415
311
1801140134014C01400102340041004151801140134014C015001023400410041518011401340158013801013200415180114013401580150010132004112001040150010C0101380041120012401100138010133004112001240110015C01013300411200130012401380101340041120013C010C01380101370041120013
311
C010C015C010137004112401380118013C010449004E0046004F00411300114010401100101350041938017C0108012001380158010239004E0041938017C010C013C013800C4010230004E0041938017C010C013C013800C8010231004E0041938017C010C013C013800CC010232004E0041938017C010C013C013800D001
311
0232004E0041938017C010C011401380138010237004E0041938017C010C01140138015C010237004E0041938017C0110012401300124010235004E0041938017C012001040150010C010238004E0041938017C0120012401100138010233004E0041938017C012001240110015C010233004E0041938017C0130011401040
311
110010235004E0041938017C0138011C012401400103490050004E0041938017C01400120010401380103340041004E0041938017C0150010C013C0138010230004E0041938017C0150012001300124010234004E0041938017C0150013001140138010230004E0041938017C01580140013001240103320041004E0041138
311
011C01240140010249005000411400104013000C801055200410048004D003500411400104013000CC01055200410048004D003500411400104013000D401055200410048004D0035004114001200104013801023400410041140013C014C01380101350041148010C011C01380101370041148010C011C015C01013700411
311
4C01080148012C010134004114C0114010C0150010134004114C0164010800CC0101350041134014C016401340101350041150010C013C0138010130004115001200130012401013400411500124015000C801055200410048004D003500411500124015000CC01055200410048004D003500411500124015000D401055200
311
410048004D0035004115001300114013801013000415500148010401240130010554005200410049004C004115001480130012401013400411500160015000C401013600411500160015000C801013600411500160015000CC01013600411500160015000D401013600411500160015000DC010136004115801240114015C0
311
10456004900450057004115801140110012001034800490044004115801140110015801035600490053004115801400130012401023200410041168012401680104010134004114C014001300124010232004100404FC02C
161
              8948
310
4250349201C00030C011E5C203800030C011E5C201400030C011E5C201800030C010FA17000030C010FA17000030C010FA23000030C011EA23800030C010FA00400030C010FA3F400030C0241201C00030C011EA17000030C010FA01C00030C011E40A01C00030C011EA03800030C011EA01400030C011EA01800030C010FA
310
17000030C010FA17000030C010FA23000030C011EA23800030C010FA00400030C010FA3F400030C0241201C00030C011EA17000030C010FA01C00030C011E40A00400030C010F42623800030C010F42E01C00030C011E42600400030C010F42E3F400030C0243617000030C010F42601C00030C010F42601C00030C011E426
310
17000030C010F42623800030C010F425548000000C0003FFFFFFFE8000000C0003FFFFFFFE8010000C30043E88C0000C30047A8000000C0003FFFFFFFE8000000C0003FFFFFFFE88C0000C30047A8070000C30047A81E0000C3004F28000000C0003FFFFFFFE8000000C0003FFFFFFFE8000000C0003FFFFFFFE8000000C00
310
03FFFFFFFD038000000C0003FFFFFFFD038000000C0003FFFFFFFD038000000C0003FFFFFFFD0385C0000C30043E8000000C0003FFFFFFFE8000000C0003FFFFFFFE8000000C0003FFFFFFFE8000000C0003FFFFFFFE8000000C0003FFFFFFFE85C0000C3003FFFFFFFE8000000C0003FFFFFFFE85C0000C30043E8000000C
310
0003FFFFFFFE85C0000C30043E8000000C0003FFFFFFFD018000000C0003FFFFFFFD038000000C0003FFFFFFFD038000000C0003FFFFFFFD018000000C0003FFFFFFFE8000000C0003FFFFFFFE8000000C0003FFFFFFFE8000000C0003FFFFFFFE8000000C0003FFFFFFFE8000000C0003FFFFFFFD038000000C0003FFFFFF
310
FD038000000C0003FFFFFFFD038000000C0003FFFFFFFD038000000C0003FFFFFFFE8000000C0003FFFFFFFE8000000C0003FFFFFFFE8000000C0003FFFFFFFD018000000C0003FFFFFFFD038000000C0003FFFFFFFD038000000C0003FFFFFFFE8000000C0003FFFFFFFE8000000C0003FFFFFFFE8000000C0003FFFFFFFD
310
038000000C0003FFFFFFFD018000000C0003FFFFFFFD038000000C0003FFFFFFFE8000000C0003FFFFFFFE8010000C3003FFFFFFFE88C0000C3003FFFFFFFE8070000C3003FFFFFFFE8000000C0003FFFFFFFE8000000C0003FFFFFFFE8000000C0003FFFFFFFE8000000C0003FFFFFFFE8070000C300479018000000C0003
310
FFFFFFFD0188C0000C30047A88C0000C3003FFFFFFFE8000000C0003FFFFFFFD038000000C0003FFFFFFFD018010000C30043E88C0000C30047A8000000C0003FFFFFFFE8000000C0003FFFFFFFD038000000C0003FFFFFFFE8000000C0003FFFFFFFD0185C0000C30043E85C0000C30043E8000000C0003FFFFFFFE807000
310
0C30047A81E0000C3004F28000000C0003FFFFFFFE8000000C0003FFFFFFFD028000000C0003FFFFFFFD028070000C30047A8000000C0003FFFFFFFD018070000C30047AAAA3F400030C010A4391E4151E4091E4793C41D1E4110F4050F7F64190F40D0F80200C
340
8
340
8
340
8
340
27
340
8
340
8
340
8
340
D03
340
8
340
8
340
D02
340
D02
340
8
340
8
340
8
340
8
340
27
340
8
340
8
340
8
340
D03
340
8
340
8
340
D02
340
D02
340
8
340
D42
340
8
340
8
340
8
340
8
340
8
340
27
340
8
340
8
340
8
340
16
340
16
340
16
340
16
340
16
340
16
340
16
340
16
340
16
340
D48
340
16
340
16
340
16
340
16
340
16
340
16
340
8
340
16
340
16
340
16
340
16
340
16
340
16
340
8
340
16
340
16
340
16
340
16
340
D49
340
16
340
16
340
D48
340
16
340
16
340
16
340
16
340
16
340
16
340
16
340
16
340
D48
340
16
340
16
340
16
340
D49
340
16
340
16
340
16
340
16
340
16
340
D49
340
16
340
16
340
16
340
8
340
8
340
8
340
16
340
16
340
D48
340
16
340
16
340
16
340
16
340
16
340
16
340
D49
340
16
340
16
340
16
340
16
340
16
340
16
340
16
340
16
340
16
340
16
340
16
340
16
340
16
340
16
340
D02
340
D4A
340
D02
 94
        0
  0
ACAD_PROXY_OBJECT
  5
DCE
102
{ACAD_REACTORS
330
DC9
102
}
330
DC9
100
AcDbProxyObject
 90
      499
 91
      575
 71
    31
 97
      125
 70
     0
162
               434
311
451100124013401140138014C0124013C013800B00104013401100150017C00A8017C01100124013401012A00404A801012A00404A800C
161
                11
310
43EC
 94
        0
  0
ACAD_PROXY_OBJECT
  5
DCD
102
{ACAD_REACTORS
330
DC9
102
}
330
DC9
100
AcDbProxyObject
 90
      499
 91
      575
 71
    31
 97
      125
 70
     0
162
               290
311
404A8010B41004D005F004600450041002D0041004D005F002A00404A801012A00404A800C
161
                11
310
43EC
 94
        0
  0
ACAD_PROXY_OBJECT
  5
DCA
102
{ACAD_REACTORS
330
DC9
102
}
330
DC9
100
AcDbProxyObject
 90
      499
 91
      575
 71
    31
 97
      125
 70
     0
162
               194
311
4152001040150010C012001012A00404A801012A00404A800C
161
                11
310
43EC
 94
        0
  0
ACAD_PROXY_OBJECT
  5
DCB
102
{ACAD_REACTORS
330
DC9
102
}
330
DC9
100
AcDbProxyObject
 90
      499
 91
      575
 71
    31
 97
      125
 70
     0
162
              1026
311
41130012401380114012738002C0038004E002C002A002D0038002C002A002D0038004E002C0041004D005F0038002C0041004D005F0038004E002C002A002D0041004D005F0038002C002A002D0041004D005F0038004E00404A801012A00441240138014C01140148015000B0014C01500110014001040148015000C8011
311
000C
161
                11
310
43EC
 94
        0
  0
ACAD_PROXY_OBJECT
  5
DCF
102
{ACAD_REACTORS
330
DC9
102
}
330
DC9
100
AcDbProxyObject
 90
      499
 91
      575
 71
    31
 97
      125
 70
     0
162
               290
311
40D040148010C010441004D005F003500404A801013200419240138014C01140148015000C
161
                11
310
43CC
 94
        0
  0
ACAD_PROXY_OBJECT
  5
DCC
102
{ACAD_REACTORS
330
DC9
102
}
330
DC9
100
AcDbProxyObject
 90
      499
 91
      575
 71
    31
 97
      125
 70
     0
162
              2242
311
61504010C01340118010C0118014801040134011400B00104010C013401100104015001540134015001040148011C0114015000B00104010C0134011001040150015401340124011000B00104010C0134015C011401300110014C0164013400B00104010C0134014C015401480118014C0164013400B00104010C013401180
311
114010401500124011000B00104010C0134014001040148015001480114011800B00104010C01340108010401300130013C013C013800B0010401340110015001140110011C0114014C0164013400B001040134011C014C010C01480114015C010C01040130010C0150010401080130011400B00104010C013401340104014
311
8012C014C015001040134014001012A00404A801012A00404A800C
161
                11
310
43EC
 94
        0
  0
DICTIONARY
  5
CB2
330
A
100
AcDbDictionary
280
     1
281
     1
  0
DICTIONARY
  5
D63
330
D62
100
AcDbDictionary
280
     1
281
     1
  3
ACAD_FIELD
360
D64
  0
DICTIONARY
  5
DD7
330
DD6
100
AcDbDictionary
280
     1
281
     1
  3
ACAD_FIELD
360
DD8
  0
DICTIONARY
  5
E36
330
69D
100
AcDbDictionary
280
     1
281
     1
  3
ACAD_ROUNDTRIP_2008_TABLESTYLE_CELLSTYLEMAP
360
E37
  0
ACAD_PROXY_OBJECT
  5
D2B
102
{ACAD_REACTORS
330
D2A
102
}
330
D2A
100
AcDbProxyObject
 90
      499
 91
      549
 71
    31
 97
      125
 70
     0
162
              3734
311
411040138014C01240243904018C01B4014C01D401C801980150019401E001D0014C01D001900109410063006D0046004300460053007400640043504018C01B4015C019401B0019001A401B8019C014C01D001900108410063006D004900640053007400640042D04018C01B40110018401D001D401B4014C01D001900109
311
410063006D0042004F004D005300740064004410401B4019001D00110019401D0018401A401B0014C01E401B4014C01D00190011141006D0064007400530065006300740069006F006E00530079006D005300740064004450401B4019001D0010C019401B801D0019401C8013001A401B80194014C01D00190011141006D00
311
640074005400680072006500610064004C0069006E00650053007400640042D0401B4019001D0013801BC01D00194014C01D00190010B410063006D00540061007000650072005300740064004350401B4019001D0010401B8015801A4019401DC014C01D00190010B4100630041006D0067004C0061007900530074006400
311
42D04018C010401B4019C011001A401B4014C01D0019001114100630041006D00670048006F006C0065004300680061007200740053007400640043504018C010401B4019C015001A401D001B00194014C01D0019000
161
               725
310
738B81E85EB51B8BE3F8000000C00040540623000030C0200000030000B81E85EB51B8BE3F495222812028120281202812028120281202812068120681202812028120281202812028120281202812028120280A04809FFFE7FFFC
340
12
360
D2C
360
D2D
360
D2E
360
D2F
360
D30
360
D31
360
D32
360
D57
360
DFB
360
D33
360
D56
360
DFC
360
D34
360
D35
360
D36
360
D37
360
D38
360
D39
360
D3A
360
D54
360
D55
340
D3B
340
0
340
16
340
16
 94
        0
  0
ACAD_PROXY_OBJECT
  5
CF8
102
{ACAD_REACTORS
330
CF7
102
}
330
CF7
100
AcDbProxyObject
 90
      499
 91
      521
 71
    31
 97
      125
 70
     0
162
              4236
311
42D10015C011C014C01140150015001240138011C014C0109430041004E00470041005200520041005900420CC00C001F000D000D401F000D800C00106430045004E0041004E004700424D000D401F000E400C001F000C400CC00D40106430045004E0044004900410041D0C01140138011001240104014C010B30002E0035
311
007C0031002E0030007C0031002E00350041D0C0114013801100124014C01500106430045004E004C0045004E004190C01140138013C01180118010E4300480041004D00460045005200440049004D004D004F00440045004550C0120010401340118011401480110012401340134013C01100114011001140118010401540
311
1300150010943004C0049004E0041005200520041005900438C000B800C400C800D401F000C000B800C800D401F000C000B800D4010843004C0049004E004500540059005000415600130012401380114010944005700470055005300430041004C00450041D300104014C0150013C0108012801013000421340104012C011
311
4015801240114015C010650005300430041004C00450041948011401580124014C0124010130004154C010C010401300114010931002700300022003D00310027003000220042550012401340114014C01500104013401400107560045005200530049004F004E00414C400D400B800C000C001107B0044005700470053004
311
5005400540049004E004700530045004E0044007D00C
161
               572
310
40682A0A940000000000001C07E82A50000000000000601FA50000000000000701FA50000000000000701FA7F27F20A82A50A0A9FA040C008000105415283F23A8747A0F9CD0505C
 94
        0
  0
ACAD_PROXY_OBJECT
  5
CF9
102
{ACAD_REACTORS
330
CF7
102
}
330
CF7
100
AcDbProxyObject
 90
      499
 91
      521
 71
    31
 97
      125
 70
     0
162
              1382
311
43550014801040138014C014C01140150015001240138011C014C0112440052004100570049004E0047005400520041004E0053004C004100540049004F004E004353C01480124011C012401380104013001300164017C013C0138010A53004F0055005200430045004C0041004E00470040D1401380154010955005000520
311
0450053004500520056004500441EC0110015C011C014C01140150015001240138011C014C01140138011001F400
161
               126
310
4060C00800041801000020A0C0080000
 94
        0
  0
DICTIONARY
  5
D64
102
{ACAD_REACTORS
330
D63
102
}
330
D63
100
AcDbDictionary
280
     1
281
     1
  3
TEXT
360
D65
  0
DICTIONARY
  5
DD8
102
{ACAD_REACTORS
330
DD7
102
}
330
DD7
100
AcDbDictionary
280
     1
281
     1
  3
TEXT
360
DD9
  0
CELLSTYLEMAP
  5
E37
102
{ACAD_REACTORS
330
E36
102
}
330
E36
100
AcDbCellStyleMap
 90
        3
300
CELLSTYLE
  1
TABLEFORMAT_BEGIN
 90
        5
170
     1
 91
        0
 92
    32768
 62
   257
 93
        1
300
CONTENTFORMAT
  1
CONTENTFORMAT_BEGIN
 90
        0
 91
        0
 92
      512
 93
        0
300

 40
0.0
140
1.0
 94
        5
 62
     0
340
12
144
0.25
309
CONTENTFORMAT_END
171
     0
 94
        6
 95
        1
302
GRIDFORMAT
  1
GRIDFORMAT_BEGIN
 90
        0
 91
        1
 62
     0
 92
       -2
340
0
 93
        0
 40
0.045
309
GRIDFORMAT_END
 95
        2
302
GRIDFORMAT
  1
GRIDFORMAT_BEGIN
 90
        0
 91
        1
 62
     0
 92
       -2
340
0
 93
        0
 40
0.045
309
GRIDFORMAT_END
 95
        4
302
GRIDFORMAT
  1
GRIDFORMAT_BEGIN
 90
        0
 91
        1
 62
     0
 92
       -2
340
0
 93
        0
 40
0.045
309
GRIDFORMAT_END
 95
        8
302
GRIDFORMAT
  1
GRIDFORMAT_BEGIN
 90
        0
 91
        1
 62
     0
 92
       -2
340
0
 93
        0
 40
0.045
309
GRIDFORMAT_END
 95
       16
302
GRIDFORMAT
  1
GRIDFORMAT_BEGIN
 90
        0
 91
        1
 62
     0
 92
       -2
340
0
 93
        0
 40
0.045
309
GRIDFORMAT_END
 95
       32
302
GRIDFORMAT
  1
GRIDFORMAT_BEGIN
 90
        0
 91
        1
 62
     0
 92
       -2
340
0
 93
        0
 40
0.045
309
GRIDFORMAT_END
309
TABLEFORMAT_END
  1
CELLSTYLE_BEGIN
 90
        1
 91
        1
300
_TITLE
309
CELLSTYLE_END
300
CELLSTYLE
  1
TABLEFORMAT_BEGIN
 90
        5
170
     1
 91
        0
 92
        0
 62
   257
 93
        1
300
CONTENTFORMAT
  1
CONTENTFORMAT_BEGIN
 90
        0
 91
        0
 92
      512
 93
        0
300

 40
0.0
140
1.0
 94
        5
 62
     0
340
12
144
0.18
309
CONTENTFORMAT_END
171
     0
 94
        6
 95
        1
302
GRIDFORMAT
  1
GRIDFORMAT_BEGIN
 90
        0
 91
        1
 62
     0
 92
       -2
340
0
 93
        0
 40
0.045
309
GRIDFORMAT_END
 95
        2
302
GRIDFORMAT
  1
GRIDFORMAT_BEGIN
 90
        0
 91
        1
 62
     0
 92
       -2
340
0
 93
        0
 40
0.045
309
GRIDFORMAT_END
 95
        4
302
GRIDFORMAT
  1
GRIDFORMAT_BEGIN
 90
        0
 91
        1
 62
     0
 92
       -2
340
0
 93
        0
 40
0.045
309
GRIDFORMAT_END
 95
        8
302
GRIDFORMAT
  1
GRIDFORMAT_BEGIN
 90
        0
 91
        1
 62
     0
 92
       -2
340
0
 93
        0
 40
0.045
309
GRIDFORMAT_END
 95
       16
302
GRIDFORMAT
  1
GRIDFORMAT_BEGIN
 90
        0
 91
        1
 62
     0
 92
       -2
340
0
 93
        0
 40
0.045
309
GRIDFORMAT_END
 95
       32
302
GRIDFORMAT
  1
GRIDFORMAT_BEGIN
 90
        0
 91
        1
 62
     0
 92
       -2
340
0
 93
        0
 40
0.045
309
GRIDFORMAT_END
309
TABLEFORMAT_END
  1
CELLSTYLE_BEGIN
 90
        2
 91
        1
300
_HEADER
309
CELLSTYLE_END
300
CELLSTYLE
  1
TABLEFORMAT_BEGIN
 90
        5
170
     1
 91
        0
 92
        0
 62
   257
 93
        1
300
CONTENTFORMAT
  1
CONTENTFORMAT_BEGIN
 90
        0
 91
        0
 92
      512
 93
        0
300

 40
0.0
140
1.0
 94
        2
 62
     0
340
12
144
0.18
309
CONTENTFORMAT_END
171
     0
 94
        6
 95
        1
302
GRIDFORMAT
  1
GRIDFORMAT_BEGIN
 90
        0
 91
        1
 62
     0
 92
       -2
340
0
 93
        0
 40
0.045
309
GRIDFORMAT_END
 95
        2
302
GRIDFORMAT
  1
GRIDFORMAT_BEGIN
 90
        0
 91
        1
 62
     0
 92
       -2
340
0
 93
        0
 40
0.045
309
GRIDFORMAT_END
 95
        4
302
GRIDFORMAT
  1
GRIDFORMAT_BEGIN
 90
        0
 91
        1
 62
     0
 92
       -2
340
0
 93
        0
 40
0.045
309
GRIDFORMAT_END
 95
        8
302
GRIDFORMAT
  1
GRIDFORMAT_BEGIN
 90
        0
 91
        1
 62
     0
 92
       -2
340
0
 93
        0
 40
0.045
309
GRIDFORMAT_END
 95
       16
302
GRIDFORMAT
  1
GRIDFORMAT_BEGIN
 90
        0
 91
        1
 62
     0
 92
       -2
340
0
 93
        0
 40
0.045
309
GRIDFORMAT_END
 95
       32
302
GRIDFORMAT
  1
GRIDFORMAT_BEGIN
 90
        0
 91
        1
 62
     0
 92
       -2
340
0
 93
        0
 40
0.045
309
GRIDFORMAT_END
309
TABLEFORMAT_END
  1
CELLSTYLE_BEGIN
 90
        3
 91
        2
300
_DATA
309
CELLSTYLE_END
  0
ACAD_PROXY_OBJECT
  5
D2C
330
D2B
100
AcDbProxyObject
 90
      499
 91
      550
 71
    31
 97
      125
 70
     0
162
                 0
161
               493
310
738B81E85EB51B8BE3F2E07A17AD46E2F8FE23000030C02000000300012AF841D01405014050140501083C80A0481A0882A0D55554000000000000785FA4
 94
        0
  0
ACAD_PROXY_OBJECT
  5
D2D
330
D2B
100
AcDbProxyObject
 90
      499
 91
      551
 71
    31
 97
      125
 70
     0
162
                 0
161
               638
310
738B81E85EB51B8BE3F2E07A17AD46E2F8FE23000030C02000000300012AFA1C80A0280A0280A0280A0280A0280A0280A0284A0280A0280A0280A0280A02400000000000000080000000000000785FA4
340
D59
 94
        0
  0
ACAD_PROXY_OBJECT
  5
D2E
330
D2B
100
AcDbProxyObject
 90
      499
 91
      552
 71
    31
 97
      125
 70
     0
162
                 0
161
               716
310
738B81E85EB51B8BE3F2E07A17AD46E2F8FE23000030C02000000300012AF98333333333333D33F24080A0280A0280A0280A0280A0280A0280A0280A0280A0280A0280A0280A0280A0280A0280A0280A0243BDF4F8D976EA23FC
340
0
 94
        0
  0
ACAD_PROXY_OBJECT
  5
D2F
330
D2B
100
AcDbProxyObject
 90
      499
 91
      553
 71
    31
 97
      125
 70
     0
162
                 0
161
               315
310
738B81E85EB51B8BE3F2E07A17AD46E2F8FE23000030C02000000300012AFC0000000000003C2FCC
340
0
 94
        0
  0
ACAD_PROXY_OBJECT
  5
D30
330
D2B
100
AcDbProxyObject
 90
      499
 91
      554
 71
    31
 97
      125
 70
     0
162
                 0
161
               493
310
738B81E85EB51B8BE3F2E07A17AD46E2F8FE23000030C02000000300012AFC521D4454FB21E93F26A6666666666E4FE89A9999999999B93F88C0000C3004
340
D5A
340
D5B
 94
        0
  0
ACAD_PROXY_OBJECT
  5
D31
330
D2B
100
AcDbProxyObject
 90
      499
 91
      555
 71
    31
 97
      125
 70
     0
162
             31734
311
4112401500114013401132800470045004E004D00530047002000470045004E00440057004700200032003200320029005091C01140138015001480104010C013C00B001140138015400B000C000B000A0011C011401380134014C011C0080011C011401380110015C011C008000C800C800C800A400B0011C011401380150
311
014801040150016000B0009401CC00B000A0011C011401380134014C011C0080019C019401B8019001DC019C008000C800C800C800A40290351005400590044CA0011C011401380134014C011C0080011C011401380110015C011C008000C800C800CC00A40142470045004E0054005200410043004F002C0045004E005500
311
2C0030002C002800470045004E004D00530047002000470045004E00440057004700200032003200330029002C00470045004E00540052004100540058002C00250073002C002800470045004E004D00530047002000670065006E0064007700670020003200320033002900A4113801040134011401132800470045004E00
311
4D00530047002000470045004E00440057004700200032003200360029005091C01140138015001480104010C013C00B001140138015400B000C000B000A0011C011401380134014C011C0080011C011401380110015C011C008000C800C800D800A400B0011C011401380150014801040150016000B0009401CC00B000A00
311
11C011401380134014C011C0080019C019401B8019001DC019C008000C800C800D800A4012C3D004900460028004900530042004C0041004E004B00280050004100520054003A004E0041004D00450029002C0042004C004F0043004B003A004E0041004D0045002C0050004100520054003A004E0041004D0045002900905
311
4400450053004300520044CA0011C011401380134014C011C0080011C011401380110015C011C008000C800C400DC00A40142470045004E0054005200410043004F002C0045004E0055002C0030002C002800470045004E004D00530047002000470045004E00440057004700200032003100370029002C00470045004E005
311
40052004100540058002C00250073002C002800470045004E004D00530047002000670065006E0064007700670020003200310037002900A4214C015001040138011001040148011001132800470045004E004D00530047002000470045004E00440057004700200032003100380029005091C01140138015001480104010C
311
013C00B001140138015400B000C000B000A0011C011401380134014C011C0080011C011401380110015C011C008000C800C400E000A400B0011C011401380150014801040150016000B0009401CC00B000A0011C011401380134014C011C0080019C019401B8019001DC019C008000C800C400E000A4029084D00410054004
311
5005200490041004C0044CA0011C011401380134014C011C0080011C011401380110015C011C008000C800C800C400A40142470045004E0054005200410043004F002C0045004E0055002C0030002C002800470045004E004D00530047002000470045004E00440057004700200032003200310029002C00470045004E0054
311
0052004100540058002C00250073002C002800470045004E004D00530047002000670065006E0064007700670020003200320031002900A41138013C0150011401132800470045004E004D00530047002000470045004E00440057004700200032003200350029005091C01140138015001480104010C013C00B0011401380
311
15400B000C000B000A0011C011401380134014C011C0080011C011401380110015C011C008000C800C800D400A400B0011C011401380150014801040150016000B0009401CC00B000A0011C011401380134014C011C0080019C019401B8019001DC019C008000C800C800D400A402906560045004E0044004F00520044CA00
311
11C011401380134014C011C0080011C011401380110015C011C008000C800C800D000A40142470045004E0054005200410043004F002C0045004E0055002C0030002C002800470045004E004D00530047002000470045004E00440057004700200032003200340029002C00470045004E00540052004100540058002C00250
311
073002C002800470045004E004D00530047002000670065006E0064007700670020003200320034002900A419100114014C010C014800C801122800470045004E004D00530047002000470045004E0044005700470020003300360029005011C01140138015001480104010C013C00B001140138015400B000C000B000A001
311
1C011401380134014C011C0080011C011401380110015C011C008000CC00D800A400B0011C011401380150014801040150016000B0009401CC00B000A0011C011401380134014C011C0080019C019401B8019001DC019C008000CC00D800A4029095300540041004E004400410052004400320044CA0011C01140138013401
311
4C011C0080011C011401380110015C011C008000C800C800C000A40142470045004E0054005200410043004F002C0045004E0055002C0030002C002800470045004E004D00530047002000470045004E00440057004700200032003200300029002C00470045004E00540052004100540058002C00250073002C0028004700
311
45004E004D00530047002000670065006E0064007700670020003200320030002900A42534010401500114014801240104013000C801122800470045004E004D00530047002000470045004E0044005700470020003400300029005011C01140138015001480104010C013C00B001140138015400B000C000B000A0011C011
311
401380134014C011C0080011C011401380110015C011C008000D000C000A400B0011C011401380150014801040150016000B0009401CC00B000A0011C011401380134014C011C0080019C019401B8019001DC019C008000D000C000A4029044D00410053005300448A0011C011401380134014C011C0080011C01140138011
311
0015C011C008000D000C800A40140470045004E0054005200410043004F002C0045004E0055002C0030002C002800470045004E004D00530047002000470045004E0044005700470020003400320029002C00470045004E00540052004100540058002C00250073002C002800470045004E004D00530047002000670065006
311
E006400770067002000340032002900A42950013C015001040130017C01340104014C014C01132800470045004E004D00530047002000470045004E00440057004700200032003200380029005091C01140138015001480104010C013C00B001140138015400B000C000B000A0011C011401380134014C011C0080011C0114
311
01380110015C011C008000C800C800E000A400B0011C011401380150014801040150016000B0009401CC00B000A0011C011401380134014C011C0080019C019401B8019001DC019C008000C800C800E000A401213D004900460028004900530042004C0041004E004B0028004D0041005300530029002C0042004C0041004E
311
004B002C005100540059002A004D00410053005300290090550005200490043004500448A0011C011401380134014C011C0080011C011401380110015C011C008000D000CC00A40140470045004E0054005200410043004F002C0045004E0055002C0030002C002800470045004E004D00530047002000470045004E004400
311
5700470020003400330029002C00470045004E00540052004100540058002C00250073002C002800470045004E004D00530047002000670065006E006400770067002000340033002900A40D100124013401122800470045004E004D00530047002000470045004E0044005700470020003400340029005011C01140138015
311
001480104010C013C00B001140138015400B000C000B000A0011C011401380134014C011C0080011C011401380110015C011C008000D000D000A400B0011C011401380150014801040150016000B0009401CC00B000A0011C011401380134014C011C0080019C019401B8019001DC019C008000D000D000A40290942004F00
311
4D005F0055004E0049005400530044CA0011C011401380134014C011C0080011C011401380110015C011C008000C800D000CC00A40142470045004E0054005200410043004F002C0045004E0055002C0030002C002800470045004E004D00530047002000470045004E00440057004700200032003400330029002C0047004
311
5004E00540052004100540058002C00250073002C002800470045004E004D00530047002000670065006E0064007700670020003200340033002900A41CF400F0012401500114013400F801073D003C004900540045004D003E0041CF400F0012401500114013400F801073D003C004900540045004D003E0041CF400F0012
311
401500114013400F801063D003C005100540059003E0041CF400F0012401500114013400F801073D003C004900540045004D003E00910420069006C006C0020006F00660020004D006100740065007200690061006C00415040148012401040130010541005200490041004C0041504014801240104013002901310090B650
311
06100090065006100090045006100630068000A00455CC01C401B4002401CC01C401B40024014C01C401D4018401C8019400800134019401D0019401C80028011C7300710063006D0009007300710063006D0009005300710075006100720065002000430065006E00740069006D0065007400650072000A00459CC01C4019
311
801D0002401CC01C4019801D00024014C01C401D4018401C801940080011801BC01BC01D0002801147300710069006E0009007300710069006E000900530071007500610072006500200049006E000A0043D9C018401B00024019C018401B00024011C018401B001B001BC01B80028010C7100740009007100740009005100
311
75006100720074000A0046DB001C40190017C01BC01E8002401B001C40190017C01BC01E80024013001A401C401D401A401900080013C01D401B8018C01940028010A6C0009006C0009004C0069007400650072000A00445B401B0002401B401B00024013401A401B001B001A401B001A401D0019401C80028010B79006400
311
090079006400090059006100720064000A0042D9801D00024019801D00024011801BC01BC01D00028010B69006E00090069006E00090049006E00630068000A00429B4002401B400240134019401D0019401C80028011163006D00090063006D000900430065006E00740069006D0065007400650072000A00445B401B4002
311
401B401B40024013401A401B001B001A401B4019401D0019401C80028010C6C00620009006C006200090050006F0075006E0064000A00431BC01E8002401BC01E80024013C01D401B8018C01940028010967000900670009004700720061006D000A00441B4019C002401B4019C0024013401A401B001B001A4019C01C8018
311
401B40028010A62007800090062007800090042006F0078000A00404B400
161
              6696
310
738B81E85EB51B8BE3F2E07A17AD46E2F8FE23000030C02000000300012AFA2080A0280A0280A0280D202269349E4B2196C9FA0320240501405014090140501405019011349A4F2590CB64FD0190120280A0280A3880C80C815174B85D2F97CA048080C80901405014051D40640640E883C16030180C064040440480A0280A
310
028EA0320320947077FBFDFEBF7F9FA02202405014050147501901905A0A0B6C1C7480BECFD0190120280A0280A3A80C80C835174B85D2F97CBE47E80C80901405014051D40640641E8BA5C2E97CBE5F23F40640480A0280A028EA03203211441E0B0180C060320202202405014050147501901909A383BFDFEFF5FBFCFD01
310
10120280A0280A3A80C80C8550505B60E3A405F67E80880901405014051D405024050242D03408BA5C2E97CBE5F23F40440480A0280A028EA02812028121881A040542A150A8147A1FA02202405014050147501409014090D409022E970BA5F2F97C8FD0110120280A0280A3A80A0480A048720681174B85D2F97CBE47E80C
310
80901405014051E40640643E8BA5C2E97CBE5F23F40640480A0288254811703D0BD6A3719C7F03C000186000080C566AB55AAD56FB1F959AAD56AB55BEC7E80A03159AAD56AB55BEC7E566AB55AAD56FB1FA0280C4863F1F8BC1E771F9218FC7E2F079DC7E80A031218FC7E2F079DC7E4863F1F8BC1E771FA0281480959AAD
310
56AB55BEC7E566AB55AAD56FB1FA0280A03159AAD56AB55BEC7E566AB55AAD56FB1FA0280C269349E4B219749F89A4D2792C865D27E80A0200566AB55AAD56FB1F959AAD56AB55BEC7F48400000000000010408000000C000B4FFFF4110340D024090140510429084410190A4064229014290A4290A40A000000000000785F
310
8000000000001E17E80C4600006180403800061801B39DEEA7C74B567E6CE77BA9F1D2D59F9B39DEEA7C74B567E5578E926B108541F877BE9F1B2EDD247E5578E926B108541F9B39DEEA7C74B567E5578E926B108541F877BE9F1B2EDD247E5578E926B108541F9703D0BD6A3717C7F40501409069014090541D064069703D
310
0BD6A3717C7F1180001860111800018601002000186005228817F3FFFCFFFF3FFFC80A0280A2A80A0280A0280A0280A0280A0280A0280A0280A0280A0280A0280C80D0640905419074390F00
340
16
340
0
340
12
340
12
340
8
340
8
340
8
 94
        0
  0
ACAD_PROXY_OBJECT
  5
D32
330
D2B
100
AcDbProxyObject
 90
      499
 91
      556
 71
    31
 97
      125
 70
     0
162
                 0
161
               279
310
738B81E85EB51B8CE3F2E07A17AD46E338FE07800030C0217000030C0123C9FE3E0000
340
D5C
 94
        0
  0
ACAD_PROXY_OBJECT
  5
D57
330
D2B
100
AcDbProxyObject
 90
      499
 91
      569
 71
    31
 97
      125
 70
     0
162
                 0
161
               247
310
738B81E85EB51B8CE3F2E07A17AD46E338FE00000030002000000300012A04
340
CEE
 94
        0
  0
ACAD_PROXY_OBJECT
  5
DFB
330
D2B
100
AcDbProxyObject
 90
      499
 91
      569
 71
    31
 97
      125
 70
     0
162
                 0
161
               247
310
738B81E85EB51B8CE3F2E07A17AD46E338FE07800030C0200C00030C012304
340
DDD
 94
        0
  0
ACAD_PROXY_OBJECT
  5
D33
330
D2B
100
AcDbProxyObject
 90
      499
 91
      557
 71
    31
 97
      125
 70
     0
162
                 0
161
               279
310
738B81E85EB51B8CE3F2E07A17AD46E338FE07800030C0201C00030C012AE9FE0E0000
340
D62
 94
        0
  0
ACAD_PROXY_OBJECT
  5
D56
330
D2B
100
AcDbProxyObject
 90
      499
 91
      568
 71
    31
 97
      125
 70
     0
162
                 0
161
               247
310
738B81E85EB51B8CE3F2E07A17AD46E338FE00000030002000000300012A04
340
CEC
 94
        0
  0
ACAD_PROXY_OBJECT
  5
DFC
330
D2B
100
AcDbProxyObject
 90
      499
 91
      568
 71
    31
 97
      125
 70
     0
162
                 0
161
               247
310
738B81E85EB51B8CE3F2E07A17AD46E338FE07800030C0201C00030C012A04
340
DD6
 94
        0
  0
ACAD_PROXY_OBJECT
  5
D34
330
D2B
100
AcDbProxyObject
 90
      499
 91
      558
 71
    31
 97
      125
 70
     0
162
                 0
161
               508
310
738000000000000F0BF0000000000003C2FE000000320020000003200200570E2DB39DEF867E14AE47E17A945E1F852B91F85EA51787F4333333333333F33FAC
 94
        0
  0
ACAD_PROXY_OBJECT
  5
D35
330
D2B
100
AcDbProxyObject
 90
      499
 91
      559
 71
    31
 97
      125
 70
     0
162
                 0
161
               241
310
738000000000000F0BF0000000000003C2FE000000320020000003200204CC
340
0
 94
        0
  0
ACAD_PROXY_OBJECT
  5
D36
330
D2B
100
AcDbProxyObject
 90
      499
 91
      560
 71
    31
 97
      125
 70
     0
162
             17300
311
42950019401B401C001B0018401D00194008000C40005013D003C0069006600280065007100750061006C00280048006F006C0065003A007400610070007000650064002C0022003000220029002C00220025002500630022002C0048006F006C0065003A006E006F006D0069006E0061006C0020002200200022002000690
311
06600280065007100750061006C00280048006F006C0065003A0075006E006900740073002C0022003100220029002C002200780022002C0022002D0022002900200022002000220029003E003C0069006600280065007100750061006C00280048006F006C0065003A007400610070007000650064002C002200300022002
311
9002C0048006F006C0065003A006400690061002C0048006F006C0065003A0070006900740063006800640065007300630029003E0020007B005C00460041004D004700440054003B0078007D0020003C0069006600280065007100750061006C00280048006F006C0065003A007400650072006D0069006E0061007400690
311
06F006E002C0022003000220029002C0048006F006C0065003A00640065007000740068002C0022005400480052005500220029003E005C0050007B005C00460041004D004700440054003B0076007D002500250063003C0048006F006C0065003A00630074006400690061003E0020007B005C00460041004D00470044005
311
4003B0078007D0020003C0048006F006C0065003A0063007400640065007000740068003E0042950019401B401C001B0018401D00194008000C401FE3D003C0069006600280065007100750061006C00280048006F006C0065003A007400610070007000650064002C0022003000220029002C00220025002500630022002C
311
0048006F006C0065003A006E006F006D0069006E0061006C002000220020002200200069006600280065007100750061006C00280048006F006C0065003A0075006E006900740073002C0022003100220029002C002200780022002C0022002D0022002900200022002000220029003E003C00690066002800650071007500
311
61006C00280048006F006C0065003A007400610070007000650064002C0022003000220029002C0048006F006C0065003A006400690061002C0048006F006C0065003A0070006900740063006800640065007300630029003E0020007B005C00460041004D004700440054003B0078007D0020003C00690066002800650071
311
00750061006C00280048006F006C0065003A007400650072006D0069006E006100740069006F006E002C0022003000220029002C0048006F006C0065003A00640065007000740068002C0022005400480052005500220029003E005C0050007B005C00460041004D004700440054003B0077007D002500250063003C004800
311
6F006C0065003A00630074006400690061003E002000580020003C0048006F006C0065003A006300740061006E0067006C0065003E0025002500640042950019401B401C001B0018401D00194008000C401CF3D003C0069006600280065007100750061006C00280048006F006C0065003A007400610070007000650064002
311
C0022003000220029002C00220025002500630022002C0048006F006C0065003A006E006F006D0069006E0061006C002000220020002200200069006600280065007100750061006C00280048006F006C0065003A0075006E006900740073002C0022003100220029002C002200780022002C0022002D00220029002000220
311
02000220029003E003C0069006600280065007100750061006C00280048006F006C0065003A007400610070007000650064002C0022003000220029002C0048006F006C0065003A006400690061002C0048006F006C0065003A0070006900740063006800640065007300630029003E005C0050007B005C00460041004D004
311
700440054003B0078007D0020003C0069006600280065007100750061006C00280048006F006C0065003A007400650072006D0069006E006100740069006F006E002C0022003000220029002C0048006F006C0065003A00640065007000740068002C0022005400480052005500220029003E0042950019401B401C001B001
311
8401D00194008000C401EA3D003C0069006600280065007100750061006C00280048006F006C0065003A007400610070007000650064002C0022003000220029002C00220025002500630022002C0048006F006C0065003A006E006F006D0069006E0061006C00200022002000220020006900660028006500710075006100
311
6C00280048006F006C0065003A0075006E006900740073002C0022003100220029002C002200780022002C0022002D0022002900200022002000220029003E003C0069006600280065007100750061006C00280048006F006C0065003A007400610070007000650064002C0022003000220029002C0048006F006C0065003A
311
006400690061002C0048006F006C0065003A0070006900740063006800640065007300630029003E0020007B005C00460041004D004700440054003B0078007D0020003C0069006600280065007100750061006C00280048006F006C0065003A007400650072006D0069006E006100740069006F006E002C00220030002200
311
29002C0048006F006C0065003A00640065007000740068002C0022005400480052005500220029003E005C0050007B005C00460041004D004700440054003B0077007D002500250063003C0048006F006C0065003A00630074006400690061003E0042950019401B401C001B0018401D00194008000C801173D003C0053005
311
400440050003A0044004500530043003E0020003C0053005400440050003A005300540044003E0042950019401B401C001B0018401D00194008000C4010C3D003C0053005400440050003A0044004500530043003E0042950019401B401C001B0018401D00194008000CC010B3D003C0053005400440050003A00530054004
311
4003E00C
161
               732
310
738B81E85EB51B8BE3F2E07A17AD46E2F8FE23000030C02000000300012AFA1280A17480A15480A0480A0280E9014050340501407480A0280A0280A03A4050141D0140501D20280A3C81A0280E901405480A02A40D01456AAB9D503C
360
D6E
330
D6E
360
D6F
330
D6F
360
D6D
330
D6D
360
D70
330
D70
360
D6B
360
D6A
360
D6C
330
D6B
330
D6A
330
D6C
 94
        0
  0
ACAD_PROXY_OBJECT
  5
D37
330
D2B
100
AcDbProxyObject
 90
      499
 91
      561
 71
    31
 97
      125
 70
     0
162
                26
311
404E800C
161
               305
310
738B81E85EB51B8BE3F2E07A17AD46E2F8FE23000030C02000000300012AFA1680A0280D55554C
 94
        0
  0
ACAD_PROXY_OBJECT
  5
D38
330
D2B
100
AcDbProxyObject
 90
      499
 91
      562
 71
    31
 97
      125
 70
     0
162
              1098
311
510F400F0014C015001480154010C015000E8010C013C01340140017C013801040134011400F8008000F0014C015001480154010C015000E8015801240114015C017C013801040134011400F80080015801240114015C01700140014C010C010401300114008000F0014C015001480154010C015000E8014C0158017C014C0
311
10C01040130011400F800C
161
               332
310
738B81E85EB51B8CE3F2E07A17AD46E2F8FE07800030C02000000300012AFA02808000000000001D07FC
340
12
 94
        0
  0
ACAD_PROXY_OBJECT
  5
D39
330
D2B
100
AcDbProxyObject
 90
      499
 91
      563
 71
    31
 97
      125
 70
     0
162
                 0
161
               253
310
738000000000000F0BF0000000000003C2FE0000003200200000032002020754
340
D3E
 94
        0
  0
ACAD_PROXY_OBJECT
  5
D3A
330
D2B
100
AcDbProxyObject
 90
      499
 91
      564
 71
    31
 97
      125
 70
     0
162
               142
311
408F000F801023C003E0040DB0018C00CC00
161
               400
310
738000000000000F0BF0000000000003C2FE00000032002000000320020208000000000000701F8000000000001C07E7FFFC00
340
D3B
340
0
340
0
340
D4B
340
D4C
340
0
340
D4D
340
D4E
340
D53
340
0
340
D4C
340
0
 94
        0
  0
ACAD_PROXY_OBJECT
  5
D54
330
D2B
100
AcDbProxyObject
 90
      499
 91
      566
 71
    31
 97
      125
 70
     0
162
             27472
311
44CA0011C011401380134014C011C0080011C011401380110012401340168008000CC00C000A40142470045004E0054005200410043004F002C0045004E0055002C0030002C002800470045004E004D00530047002000470045004E00440049004D005A0020003300300029002C00470045004E00540052004100540058002
311
C00250073002C002800470045004E004D00530047002000670065006E00640069006D007A00200033003000290043CF400F0011001940198018401D401B001D0015001A401D001B0019400F801132800470045004E004D00530047002000470045004E00440049004D005A0020003300310029005091C01140138015001480
311
104010C013C00B001140138015400B000C000B000A0011C011401380134014C011C0080011C011401380110012401340168008000CC00C400A400B0011C011401380150014801040150016000B0009401CC00B000A0011C011401380134014C011C0080019C019401B8019001A401B401E8008000CC00C400A4010F3D003C0
311
0440065006600610075006C0074005400690074006C0065003E00448A0011C011401380134014C011C0080011C011401380110012401340168008000C400A40140470045004E0054005200410043004F002C0045004E0055002C0030002C002800470045004E004D00530047002000470045004E00440049004D005A002000
311
310029002C00470045004E00540052004100540058002C00250073002C002800470045004E004D00530047002000670065006E00640069006D007A00200031002900448A0011C011401380134014C011C0080011C011401380110012401340168008000C400A40140470045004E0054005200410043004F002C0045004E005
311
5002C0030002C002800470045004E004D00530047002000470045004E00440049004D005A002000310029002C00470045004E00540052004100540058002C00250073002C002800470045004E004D00530047002000670065006E00640069006D007A00200031002900448A0011C011401380134014C011C0080011C011401
311
380110012401340168008000C800A40140470045004E0054005200410043004F002C0045004E0055002C0030002C002800470045004E004D00530047002000470045004E00440049004D005A002000320029002C00470045004E00540052004100540058002C00250073002C002800470045004E004D005300470020006700
311
65006E00640069006D007A00200032002900538F400F00124011800A00124014C0108013001040138012C00A0012001BC01B00194012401D0019401B400A400B0013C01C801A4019C01A401B800B00080012001BC01B00194012401D0019401B400A400F800F00124011800A00124014C0108013001040138012C00A001200
311
1BC01B00194012401D0019401B400A400B00088008800B00080012001BC01B00194012401B80190019401E000A400F801122800470045004E004D00530047002000470045004E00440049004D005A002000330029005011C01140138015001480104010C013C00B001140138015400B000C000B000A0011C01140138013401
311
4C011C0080011C011401380110012401340168008000CC00A400B0011C011401380150014801040150016000B0009401CC00B000A0011C011401380134014C011C0080019C019401B8019001A401B401E8008000CC00A401122800470045004E004D00530047002000470045004E00440049004D005A002000340029005011
311
C01140138015001480104010C013C00B001140138015400B000C000B000A0011C011401380134014C011C0080011C011401380110012401340168008000D000A400B0011C011401380150014801040150016000B0009401CC00B000A0011C011401380134014C011C0080019C019401B8019001A401B401E8008000D000A40
311
1122800470045004E004D00530047002000470045004E00440049004D005A002000360029005011C01140138015001480104010C013C00B001140138015400B000C000B000A0011C011401380134014C011C0080011C011401380110012401340168008000D800A400B0011C011401380150014801040150016000B0009401
311
CC00B000A0011C011401380134014C011C0080019C019401B8019001A401B401E8008000D800A401122800470045004E004D00530047002000470045004E00440049004D005A002000370029005011C01140138015001480104010C013C00B001140138015400B000C000B000A0011C011401380134014C011C0080011C011
311
401380110012401340168008000DC00A400B0011C011401380150014801040150016000B0009401CC00B000A0011C011401380134014C011C0080019C019401B8019001A401B401E8008000DC00A401122800470045004E004D00530047002000470045004E00440049004D005A002000380029005011C0114013801500148
311
0104010C013C00B001140138015400B000C000B000A0011C011401380134014C011C0080011C011401380110012401340168008000E000A400B0011C011401380150014801040150016000B0009401CC00B000A0011C011401380134014C011C0080019C019401B8019001A401B401E8008000E000A401132800470045004E
311
004D00530047002000470045004E00440049004D005A0020003200300029005091C01140138015001480104010C013C00B001140138015400B000C000B000A0011C011401380134014C011C0080011C011401380110012401340168008000C800C000A400B0011C011401380150014801040150016000B0009401CC00B000A
311
0011C011401380134014C011C0080019C019401B8019001A401B401E8008000C800C000A401132800470045004E004D00530047002000470045004E00440049004D005A0020003100340029005091C01140138015001480104010C013C00B001140138015400B000C000B000A0011C011401380134014C011C0080011C0114
311
01380110012401340168008000C400D000A400B0011C011401380150014801040150016000B0009401CC00B000A0011C011401380134014C011C0080019C019401B8019001A401B401E8008000C400D000A401132800470045004E004D00530047002000470045004E00440049004D005A0020003100350029005091C01140
311
138015001480104010C013C00B001140138015400B000C000B000A0011C011401380134014C011C0080011C011401380110012401340168008000C400D400A400B0011C011401380150014801040150016000B0009401CC00B000A0011C011401380134014C011C0080019C019401B8019001A401B401E8008000C400D400A
311
401132800470045004E004D00530047002000470045004E00440049004D005A0020003100360029005091C01140138015001480104010C013C00B001140138015400B000C000B000A0011C011401380134014C011C0080011C011401380110012401340168008000C400D800A400B0011C0114013801500148010401500160
311
00B0009401CC00B000A0011C011401380134014C011C0080019C019401B8019001A401B401E8008000C400D800A401132800470045004E004D00530047002000470045004E00440049004D005A0020003100370029005091C01140138015001480104010C013C00B001140138015400B000C000B000A0011C0114013801340
311
14C011C0080011C011401380110012401340168008000C400DC00A400B0011C011401380150014801040150016000B0009401CC00B000A0011C011401380134014C011C0080019C019401B8019001A401B401E8008000C400DC00A401132800470045004E004D00530047002000470045004E00440049004D005A002000320
311
0320029005091C01140138015001480104010C013C00B001140138015400B000C000B000A0011C011401380134014C011C0080011C011401380110012401340168008000C800C800A400B0011C011401380150014801040150016000B0009401CC00B000A0011C011401380134014C011C0080019C019401B8019001A401B4
311
01E8008000C800C800A401132800470045004E004D00530047002000470045004E00440049004D005A0020003100390029005091C01140138015001480104010C013C00B001140138015400B000C000B000A0011C011401380134014C011C0080011C011401380110012401340168008000C400E400A400B0011C011401380
311
150014801040150016000B0009401CC00B000A0011C011401380134014C011C0080019C019401B8019001A401B401E8008000C400E400A401132800470045004E004D00530047002000470045004E00440049004D005A0020003200310029005091C01140138015001480104010C013C00B001140138015400B000C000B000
311
A0011C011401380134014C011C0080011C011401380110012401340168008000C800C400A400B0011C011401380150014801040150016000B0009401CC00B000A0011C011401380134014C011C0080019C019401B8019001A401B401E8008000C800C400A4014E3D003C004900460028004900530042004C0041004E004B00
311
280048006F006C0065004900740065006D0029002C004F0072006900670069006E002C00200048006F006C0065004900740065006D0029003E003C004900460028004900530042004C0041004E004B00280048006F006C0065004900740065006D0029002C00220022002C00200048006F006C00650049006E006400650078
311
0029003E00CC
161
              7065
310
738000000000000F0BF0000000000003C2FE00000032002000000320020246352020600005C0F42F5A8DC5F1FC46000061806808180001703D0BD6A3717C7F118000186018080F0201800000000000000000000000000000000F6295C8FC2F5487E5C0F42F5A8DC5F1FC46000061800F6295C8FC2F5487E5C0F42F5A8DC5F1
310
FC4600006180403F8080F0201800000000000000000000000000000000F6295C8FC2F5487E5C0F42F5A8DC5F1FC46000061800F6295C8FC2F5487E5C0F42F5A8DC5F1FC4600006180403FA1C8821E88A0481A0882A0E862028722489A2A82A2483A288621A880000808000808200110A000101000101040021F40002020202
310
020800446800040400040400008150000808000808000103A0001010001010000209400020200020206004168000404000404040083D000080800080020010CA0001010001010500A0340002020002020A0143A800040400040410008950000808000808280113A000101000101050022B40002020002020C0045280004040
310
00400100086D22000CFFFFFFFF0026A6666666667A4FE7FFFFFFF819353333333333D27F3FFFFFFFC049A9999999999E93F9FFFFFFFE024D4CCCCCCCCCF49FCFFFFFFFF0226A6666666667A4FE7FFFFFFF811353333333333D27F3FFFFFFFC0D9FFFFFFFE0600000000000000204FFFFFFFF0026A666666666764FE7FFFFFF
310
F801353333333333D27F3FFFFFFFC009A9999999999E93F9FFFFFFFE004D4CCCCCCCCCF49FCFFFFFFFF0026A6666666667A4FE7FFFFFFF819703D0BD6A371BC7F3FFFFFFFC0C67666666666606409FFFFFFFE880033FFFFFFFC009A9999999999E93F9FFFFFFFE064D4CCCCCCCCCF49FCFFFFFFFF0326A6666666667A4FE7F
310
FFFFFF819353333333333D27F3FFFFFFFC0C9A9999999999E93F9FFFFFFFE064D4CCCCCCCCCF49FCFFFFFFFF0367FFFFFFF81800000000000000813FFFFFFFC009A9999999999D93F9FFFFFFFE004D4CCCCCCCCCF49FCFFFFFFFF0326A6666666667A4FE7FFFFFFF801353333333333D27F3FFFFFFFC009A9999999999E93F
310
9FFFFFFFE065C0F42F5A8DC6F1FCFFFFFFFF0319D999999999819027FFFFFFFA088800000021E000000890000002260000008220E00020089000000206000200810000801FFFFFFFE812020002822200000008780000022400000089800000206000082220000000878000002240000008A8000001FFFFFFFF4C
340
0
340
0
340
0
340
0
340
12
340
12
 94
        0
  0
ACAD_PROXY_OBJECT
  5
D55
330
D2B
100
AcDbProxyObject
 90
      499
 91
      567
 71
    31
 97
      125
 70
     0
162
             10568
311
411040138014C0124010641004E00530049005F004300429040138014C0124017C0150012401500154014C011541004E00530049005F00420052005F005200650076006900730069006F006E006C00690073007400610044104008000A000E000B800D401E000C400C400B800C001A401B8018C01A000A4010641004E00530
311
049005F00410044518008000A000C800E000B800C001E000D000C000B800C001A401B8018C01A000A4010641004E00530049005F00460044514008000A000CC00D000B800C001E000D000D000B800C001A401B8018C01A000A4010641004E00530049005F00450044510008000A000C800C800B800C001E000CC00D000B800
311
C001A401B8018C01A000A4010641004E00530049005F00440044508008000A000C400C400B800C001E000C400DC00B800C001A401B8018C01A000A4010641004E00530049005F0042004450C008000A000C400DC00B800C001E000C800C800B800C001A401B8018C01A000A4010641004E00530049005F00430044D0401B80
311
1CC01A40080015001A401D001B001940080010801B001BC018C01AC00800110010C010C41004E00530049005F005400490054004C0045004400430044D0401B801CC01A40080015001A401D001B001940080010801B001BC018C01AC00800104010C010C41004E00530049005F005400490054004C00450041004300439540
311
14C0080015001A401D001B001940080010801B001BC018C01AC010A41004E00530049005F00540049005400550053004490401B801CC01A40080015001A401D001B001940080010801B001BC018C01AC00800110010B41004E00530049005F005400490054004C00450044004490401B801CC01A40080015001A401D001B00
311
1940080010801B001BC018C01AC00800104010B41004E00530049005F005400490054004C004500410044948019401D801A401CC01A401BC01B801B001A401CC01D000800110017C01080148017C011541004E00530049005F00420052005F005200650076006900730069006F006E006C0069007300740064004494801940
311
1D801A401CC01A401BC01B801B001A401CC01D000800110017C01500148017C011541004E00530049005F00540052005F005200650076006900730069006F006E006C00690073007400640044948019401D801A401CC01A401BC01B801B001A401CC01D000800104017C01080148017C011541004E00530049005F00420052
311
005F005200650076006900730069006F006E006C00690073007400610044948019401D801A401CC01A401BC01B801B001A401CC01D000800104017C01500148017C011541004E00530049005F00540052005F005200650076006900730069006F006E006C00690073007400610044948019401D801A401CC01A401BC01B801
311
B001A401CC01D000800110017C01080130017C011541004E00530049005F0042004C005F005200650076006900730069006F006E006C00690073007400640044948019401D801A401CC01A401BC01B801B001A401CC01D000800110017C01500130017C011541004E00530049005F0054004C005F005200650076006900730
311
069006F006E006C00690073007400640044948019401D801A401CC01A401BC01B801B001A401CC01D000800104017C01080130017C011541004E00530049005F0042004C005F005200650076006900730069006F006E006C00690073007400610044948019401D801A401CC01A401BC01B801B001A401CC01D000800104017
311
C01500130017C011541004E00530049005F0054004C005F005200650076006900730069006F006E006C006900730074006100A00
161
               490
310
738000000000000F0BF0000000000003C2FE0000003200200000032002032E8320A84205400000000002015900000000000000324000000000000007100C
 94
        0
  0
FIELD
  5
D65
102
{ACAD_REACTORS
330
D64
102
}
330
D64
100
AcDbField
  1
_text
  2
%<\_FldIdx 0>% %<\_FldIdx 1>%-%<\_FldIdx 2>%
 90
        3
360
D66
360
D68
360
D69
 97
        0
 91
       63
 92
        0
 94
        9
 95
        2
 96
        0
300

 93
        0
  7
ACFD_FIELD_VALUE
 93
        3
 90
        0
 94
        0
300

302

304
ACVALUE_END
301

 98
        0
  0
FIELD
  5
DD9
102
{ACAD_REACTORS
330
DD8
102
}
330
DD8
100
AcDbField
  1
_text
  2
%<\_FldIdx 0>% %<\_FldIdx 1>%-%<\_FldIdx 2>%
 90
        3
360
DDA
360
DDB
360
DDC
 97
        0
 91
       63
 92
        0
 94
        9
 95
        2
 96
        0
300

 93
        0
  7
ACFD_FIELD_VALUE
 93
        3
 90
        0
 94
        0
300

302

304
ACVALUE_END
301

 98
        0
  0
ACAD_PROXY_OBJECT
  5
D6E
330
0
100
AcDbProxyObject
 90
      499
 91
      572
 71
    31
 97
      125
 70
     0
162
              4364
311
42950019401B401C001B0018401D00194008000C40005013D003C0069006600280065007100750061006C00280048006F006C0065003A007400610070007000650064002C0022003000220029002C00220025002500630022002C0048006F006C0065003A006E006F006D0069006E0061006C0020002200200022002000690
311
06600280065007100750061006C00280048006F006C0065003A0075006E006900740073002C0022003100220029002C002200780022002C0022002D0022002900200022002000220029003E003C0069006600280065007100750061006C00280048006F006C0065003A007400610070007000650064002C002200300022002
311
9002C0048006F006C0065003A006400690061002C0048006F006C0065003A0070006900740063006800640065007300630029003E0020007B005C00460041004D004700440054003B0078007D0020003C0069006600280065007100750061006C00280048006F006C0065003A007400650072006D0069006E0061007400690
311
06F006E002C0022003000220029002C0048006F006C0065003A00640065007000740068002C0022005400480052005500220029003E005C0050007B005C00460041004D004700440054003B0076007D002500250063003C0048006F006C0065003A00630074006400690061003E0020007B005C00460041004D00470044005
311
4003B0078007D0020003C0048006F006C0065003A0063007400640065007000740068003E00C
161
                29
310
73A0101C
 94
        0
  0
ACAD_PROXY_OBJECT
  5
D6F
330
0
100
AcDbProxyObject
 90
      499
 91
      572
 71
    31
 97
      125
 70
     0
162
              4244
311
42950019401B401C001B0018401D00194008000C401FE3D003C0069006600280065007100750061006C00280048006F006C0065003A007400610070007000650064002C0022003000220029002C00220025002500630022002C0048006F006C0065003A006E006F006D0069006E0061006C002000220020002200200069006
311
600280065007100750061006C00280048006F006C0065003A0075006E006900740073002C0022003100220029002C002200780022002C0022002D0022002900200022002000220029003E003C0069006600280065007100750061006C00280048006F006C0065003A007400610070007000650064002C00220030002200290
311
02C0048006F006C0065003A006400690061002C0048006F006C0065003A0070006900740063006800640065007300630029003E0020007B005C00460041004D004700440054003B0078007D0020003C0069006600280065007100750061006C00280048006F006C0065003A007400650072006D0069006E006100740069006
311
F006E002C0022003000220029002C0048006F006C0065003A00640065007000740068002C0022005400480052005500220029003E005C0050007B005C00460041004D004700440054003B0077007D002500250063003C0048006F006C0065003A00630074006400690061003E002000580020003C0048006F006C0065003A0
311
06300740061006E0067006C0065003E00250025006400C
161
                29
310
73A0101C
 94
        0
  0
ACAD_PROXY_OBJECT
  5
D6D
330
0
100
AcDbProxyObject
 90
      499
 91
      572
 71
    31
 97
      125
 70
     0
162
              3492
311
42950019401B401C001B0018401D00194008000C401CF3D003C0069006600280065007100750061006C00280048006F006C0065003A007400610070007000650064002C0022003000220029002C00220025002500630022002C0048006F006C0065003A006E006F006D0069006E0061006C002000220020002200200069006
311
600280065007100750061006C00280048006F006C0065003A0075006E006900740073002C0022003100220029002C002200780022002C0022002D0022002900200022002000220029003E003C0069006600280065007100750061006C00280048006F006C0065003A007400610070007000650064002C00220030002200290
311
02C0048006F006C0065003A006400690061002C0048006F006C0065003A0070006900740063006800640065007300630029003E005C0050007B005C00460041004D004700440054003B0078007D0020003C0069006600280065007100750061006C00280048006F006C0065003A007400650072006D0069006E00610074006
311
9006F006E002C0022003000220029002C0048006F006C0065003A00640065007000740068002C0022005400480052005500220029003E00C
161
                29
310
73A0101C
 94
        0
  0
ACAD_PROXY_OBJECT
  5
D70
330
0
100
AcDbProxyObject
 90
      499
 91
      572
 71
    31
 97
      125
 70
     0
162
              3924
311
42950019401B401C001B0018401D00194008000C401EA3D003C0069006600280065007100750061006C00280048006F006C0065003A007400610070007000650064002C0022003000220029002C00220025002500630022002C0048006F006C0065003A006E006F006D0069006E0061006C002000220020002200200069006
311
600280065007100750061006C00280048006F006C0065003A0075006E006900740073002C0022003100220029002C002200780022002C0022002D0022002900200022002000220029003E003C0069006600280065007100750061006C00280048006F006C0065003A007400610070007000650064002C00220030002200290
311
02C0048006F006C0065003A006400690061002C0048006F006C0065003A0070006900740063006800640065007300630029003E0020007B005C00460041004D004700440054003B0078007D0020003C0069006600280065007100750061006C00280048006F006C0065003A007400650072006D0069006E006100740069006
311
F006E002C0022003000220029002C0048006F006C0065003A00640065007000740068002C0022005400480052005500220029003E005C0050007B005C00460041004D004700440054003B0077007D002500250063003C0048006F006C0065003A00630074006400690061003E00C
161
                29
310
73A0101C
 94
        0
  0
ACAD_PROXY_OBJECT
  5
D6B
330
0
100
AcDbProxyObject
 90
      499
 91
      572
 71
    31
 97
      125
 70
     0
162
               548
311
42950019401B401C001B0018401D00194008000C801173D003C0053005400440050003A0044004500530043003E0020003C0053005400440050003A005300540044003E00C
161
                29
310
73A01014
 94
        0
  0
ACAD_PROXY_OBJECT
  5
D6A
330
0
100
AcDbProxyObject
 90
      499
 91
      572
 71
    31
 97
      125
 70
     0
162
               372
311
42950019401B401C001B0018401D00194008000C4010C3D003C0053005400440050003A0044004500530043003E00C
161
                29
310
73A0101C
 94
        0
  0
ACAD_PROXY_OBJECT
  5
D6C
330
0
100
AcDbProxyObject
 90
      499
 91
      572
 71
    31
 97
      125
 70
     0
162
               356
311
42950019401B401C001B0018401D00194008000CC010B3D003C0053005400440050003A005300540044003E00C
161
                29
310
73A01014
 94
        0
  0
FIELD
  5
D66
330
D65
100
AcDbField
  1
AcVar
  2
\AcVar ViewType \f "%tc1"
 90
        0
 97
        0
 91
       63
 92
        0
 94
       43
 95
        2
 96
        0
300

 93
        1
  6
Variable
 93
        2
 90
        4
  1
ViewType
 94
        0
300

302

304
ACVALUE_END
  7
ACFD_FIELD_VALUE
 93
        1
 90
        0
 94
        0
300
%tc1
302

304
ACVALUE_END
301
----
 98
        4
  0
FIELD
  5
D68
330
D65
100
AcDbField
  1
AcVar
  2
\AcVar ViewSectionStartId
 90
        0
 97
        0
 91
       63
 92
        0
 94
       43
 95
        2
 96
        0
300

 93
        1
  6
Variable
 93
        2
 90
        4
  1
ViewSectionStartId
 94
        0
300

302

304
ACVALUE_END
  7
ACFD_FIELD_VALUE
 93
        1
 90
        0
 94
        0
300

302

304
ACVALUE_END
301
----
 98
        4
  0
FIELD
  5
D69
330
D65
100
AcDbField
  1
AcVar
  2
\AcVar ViewSectionEndId
 90
        0
 97
        0
 91
       63
 92
        0
 94
       43
 95
        2
 96
        0
300

 93
        1
  6
Variable
 93
        2
 90
        4
  1
ViewSectionEndId
 94
        0
300

302

304
ACVALUE_END
  7
ACFD_FIELD_VALUE
 93
        1
 90
        0
 94
        0
300

302

304
ACVALUE_END
301
----
 98
        4
  0
FIELD
  5
DDA
330
DD9
100
AcDbField
  1
AcVar
  2
\AcVar ViewType \f "%tc1"
 90
        0
 97
        0
 91
       63
 92
        0
 94
       43
 95
        2
 96
        0
300

 93
        1
  6
Variable
 93
        2
 90
        4
  1
ViewType
 94
        0
300

302

304
ACVALUE_END
  7
ACFD_FIELD_VALUE
 93
        1
 90
        0
 94
        0
300
%tc1
302

304
ACVALUE_END
301
----
 98
        4
  0
FIELD
  5
DDB
330
DD9
100
AcDbField
  1
AcVar
  2
\AcVar ViewSectionStartId
 90
        0
 97
        0
 91
       63
 92
        0
 94
       43
 95
        2
 96
        0
300

 93
        1
  6
Variable
 93
        2
 90
        4
  1
ViewSectionStartId
 94
        0
300

302

304
ACVALUE_END
  7
ACFD_FIELD_VALUE
 93
        1
 90
        0
 94
        0
300

302

304
ACVALUE_END
301
----
 98
        4
  0
FIELD
  5
DDC
330
DD9
100
AcDbField
  1
AcVar
  2
\AcVar ViewSectionEndId
 90
        0
 97
        0
 91
       63
 92
        0
 94
       43
 95
        2
 96
        0
300

 93
        1
  6
Variable
 93
        2
 90
        4
  1
ViewSectionEndId
 94
        0
300

302

304
ACVALUE_END
  7
ACFD_FIELD_VALUE
 93
        1
 90
        0
 94
        0
300

302

304
ACVALUE_END
301
----
 98
        4
  0
ENDSEC
  0
SECTION
  2
ACDSDATA
 70
     2
 71
     8
  0
ACDSSCHEMA
 90
        0
  1
AcDb_Thumbnail_Schema
  2
AcDbDs::ID
280
    10
 91
        8
  2
Thumbnail_Data
280
    15
 91
        0
101
ACDSRECORD
 95
        0
 90
        1
  2
AcDbDs::TreatedAsObjectData
280
     1
291
     1
101
ACDSRECORD
 95
        0
 90
        2
  2
AcDbDs::Legacy
280
     1
291
     1
101
ACDSRECORD
  1
AcDbDs::ID
 90
        3
  2
AcDs:Indexable
280
     1
291
     1
101
ACDSRECORD
  1
AcDbDs::ID
 90
        4
  2
AcDbDs::HandleAttribute
280
     7
282
     1
  0
ACDSSCHEMA
 90
        1
  1
AcDbDs::TreatedAsObjectDataSchema
  2
AcDbDs::TreatedAsObjectData
280
     1
 91
        0
  0
ACDSSCHEMA
 90
        2
  1
AcDbDs::LegacySchema
  2
AcDbDs::Legacy
280
     1
 91
        0
  0
ACDSSCHEMA
 90
        3
  1
AcDbDs::IndexedPropertySchema
  2
AcDs:Indexable
280
     1
 91
        0
  0
ACDSSCHEMA
 90
        4
  1
AcDbDs::HandleAttributeSchema
  2
AcDbDs::HandleAttribute
280
     7
 91
        1
284
     1
  0
ACDSRECORD
 90
        0
  2
AcDbDs::ID
280
    10
320
A
  2
Thumbnail_Data
280
    15
 94
     1920
310
89504E470D0A1A0A0000000D4948445200000100000000800803000000D36B473800000300504C5445FFFFFF000000C8C8C80000000000000000000000000000000000000000000000000000330000660000990000CC0000FF0033000033330033660033990033CC0033FF0066000066330066660066990066CC0066FF0099
310
000099330099660099990099CC0099FF00CC0000CC3300CC6600CC9900CCCC00CCFF00FF0000FF3300FF6600FF9900FFCC00FFFF3300003300333300663300993300CC3300FF3333003333333333663333993333CC3333FF3366003366333366663366993366CC3366FF3399003399333399663399993399CC3399FF33CC00
310
33CC3333CC6633CC9933CCCC33CCFF33FF0033FF3333FF6633FF9933FFCC33FFFF6600006600336600666600996600CC6600FF6633006633336633666633996633CC6633FF6666006666336666666666996666CC6666FF6699006699336699666699996699CC6699FF66CC0066CC3366CC6666CC9966CCCC66CCFF66FF0066
310
FF3366FF6666FF9966FFCC66FFFF9900009900339900669900999900CC9900FF9933009933339933669933999933CC9933FF9966009966339966669966999966CC9966FF9999009999339999669999999999CC9999FF99CC0099CC3399CC6699CC9999CCCC99CCFF99FF0099FF3399FF6699FF9999FFCC99FFFFCC0000CC00
310
33CC0066CC0099CC00CCCC00FFCC3300CC3333CC3366CC3399CC33CCCC33FFCC6600CC6633CC6666CC6699CC66CCCC66FFCC9900CC9933CC9966CC9999CC99CCCC99FFCCCC00CCCC33CCCC66CCCC99CCCCCCCCCCFFCCFF00CCFF33CCFF66CCFF99CCFFCCCCFFFFFF0000FF0033FF0066FF0099FF00CCFF00FFFF3300FF3333
310
FF3366FF3399FF33CCFF33FFFF6600FF6633FF6666FF6699FF66CCFF66FFFF9900FF9933FF9966FF9999FF99CCFF99FFFFCC00FFCC33FFCC66FFCC99FFCCCCFFCCFFFFFF00FFFF33FFFF66FFFF99FFFFCCFFFFFF0000000D0D0D1A1A1A2828283535354343435050505D5D5D6B6B6B787878868686939393A1A1A1AEAEAEBB
310
BBBBC9C9C9D6D6D6E4E4E4F1F1F1FFFFFF000000000000000000000000000000000000000000000000000000000000B0E2D2350000043B4944415478DAED9D6D92DB200C86DFFB1F5327E974B2B625101830244296FBA3DBED3881C7FA421602285EE4E8C2C8357697C92B000480001000CC016026FA34D5C7CFDC0361D488
310
1B0790CFFF3F00E17BF1CC8B6D03E06FB220240F7E47001D63FD4CF1F3E70F018E7F714530AB026AC0D535D6EBF1A662FFF90DE63CFE6500F419F501C0355D05C0340253009CAA7A1A2C55AA7399284E2205703EF743410E256990BFAF01602E4B8EA42E013500C97490F883C2BD607612BF0670D8A9F248A67B941F480083
310
C0FFFB525B54ECF58FA3CA590004EDBA0D487CF87209A88BC14A00DC5713953E653E008818AA6C2C16A8800EA064034601DCE875B3AB591E070841A77900507DA4E8CB7C2D05C0033AE4E3690140D91290EE84DA68284CF9073401A8FC7E4A28F8A3D5E02300F7C1D52600F0D006BC4702143B804F4C5CD2BF2CEAD81C40C1
310
06409B5BB28804FC0120B6BED001888489430990B91214D7E6D7320D1E006479D28A0F461209BB90006A1B41963D2A664EB606606E396C0700B701675ECD05809E7C804C52D9B601982F019046707F1B80B00101C01C0037955101E0CB2A406FB70101A0D3BBB97383210101600D80240FD49810F406E02AAB4173259D3F00
310
9D15E13F0280B0013DF30A23E806807C31BC2823645A02445DCC9A8C50E403DCAA400008004D1FDF5B95ECC906DC01D0A243572F469C03E8ABCC7A9F0AB415E16780FC4980AC59951960F1EADC1800F1CC12151D77833980F3BDB169001802706EB42A0150BEC816806BFC2300D84E33F63504F30098E1625BE5C65EF8B4DE
310
6E098022C3638110E32784429100AB00A66784CAFBAAEC01287881F900AC4A40C108628911B40240B76170FD7ABCFA018A11C43323A8ECD6322401EBEFD12AE4AC02488D20AD0260C80BA06604070010EB3B60DE0B683BC1DE6404D165043B2440FA4175BBA689B5C0F7AE9D00CCEB8DD331567B0026EE0A6D19AC350098D5
310
1CA52CF478970DB81BEF4B7A89D1DB0180DE0E00F476002553E80E40522378DB73E14500E86E61E80540DE40A5F6BAD42380AE5E5201C02B0034960A4457D900100002400008000160630054EA394DF94E32A586EE5D00C8238050012EE09021B0580BAADDE93D4880D470141B5897EACA420502802D00AF3F68895AAA81E4
310
4FA49DCAB16D42E421804A19ADF6975715006B3CBB1D800109103B20D28329F25EDBC8BA3B6FAF028904C9FD53F96127B6018C57CAD3C8FD5E8C20AE2EE6BBC701633600691B777918C9A918698F45475EE03AC9005A276A09800C0378AC0272F34CD663D9230061F3A19DCFB613801941D051790C795A1D942C812309008F
310
8BF15713920603B8CE72730420AD0FBE00F070F0A89EE7F923272AC0F789BC3310420E00C44F3A526C844B2FC08F1F21760CC375589D91EDF34B02A1BBFBA19DD5691380CE837D7DE2DC84114C96C6D52D647B00400E80F97A02722308B55744D257C1685ABC5B0294A317D4A47FDA4A020F366790A3AB3CCB7F703F2F197D
310
88DA550000000049454E44AE426082
  0
ENDSEC
  0
EOF
