  0
SECTION
  2
HEADER
  9
$ACADVER
  1
AC1009
  9
$INSBASE
 10
0.0
 20
0.0
 30
0.0
  9
$EXTMIN
 10
2.66665
 20
2.66665
 30
0.0
  9
$EXTMAX
 10
87.99945
 20
56.056818
 30
0.0
  9
$LIMMIN
 10
0.0
 20
0.0
  9
$LIMMAX
 10
90.6661
 20
58.6663
  9
$ORTHOMODE
 70
     1
  9
$REGENMODE
 70
     1
  9
$FILLMODE
 70
     1
  9
$QTEXTMODE
 70
     0
  9
$MIRRTEXT
 70
     1
  9
$DRAGMODE
 70
     2
  9
$LTSCALE
 40
2.66665
  9
$OSMODE
 70
     0
  9
$ATTMODE
 70
     1
  9
$TEXTSIZE
 40
0.666663
  9
$TRACEWID
 40
0.05
  9
$TEXTSTYLE
  7
MASTER
  9
$CLAYER
  8
DIMENSION
  9
$CELTYPE
  6
BYLAYER
  9
$CECOLOR
 62
   256
  9
$DIMSCALE
 40
5.3333
  9
$DIMASZ
 40
0.18
  9
$DIMEXO
 40
0.0625
  9
$DIMDLI
 40
0.38
  9
$DIMRND
 40
0.0
  9
$DIMDLE
 40
0.0
  9
$DIMEXE
 40
0.18
  9
$DIMTP
 40
0.0
  9
$DIMTM
 40
0.0
  9
$DIMTXT
 40
0.125
  9
$DIMCEN
 40
0.09
  9
$DIMTSZ
 40
0.0
  9
$DIMTOL
 70
     0
  9
$DIMLIM
 70
     0
  9
$DIMTIH
 70
     1
  9
$DIMTOH
 70
     1
  9
$DIMSE1
 70
     0
  9
$DIMSE2
 70
     0
  9
$DIMTAD
 70
     0
  9
$DIMZIN
 70
     0
  9
$DIMBLK
  1

  9
$DIMASO
 70
     1
  9
$DIMSHO
 70
     1
  9
$DIMPOST
  1

  9
$DIMAPOST
  1
mm
  9
$DIMALT
 70
     0
  9
$DIMALTD
 70
     2
  9
$DIMALTF
 40
25.4
  9
$DIMLFAC
 40
1.0
  9
$DIMTOFL
 70
     0
  9
$DIMTVP
 40
0.0
  9
$DIMTIX
 70
     0
  9
$DIMSOXD
 70
     0
  9
$DIMSAH
 70
     0
  9
$DIMBLK1
  1

  9
$DIMBLK2
  1

  9
$DIMSTYLE
  2
ENGLISH
  9
$DIMCLRD
 70
     0
  9
$DIMCLRE
 70
     0
  9
$DIMCLRT
 70
     0
  9
$DIMTFAC
 40
1.0
  9
$DIMGAP
 40
0.09
  9
$LUNITS
 70
     2
  9
$LUPREC
 70
     4
  9
$SKETCHINC
 40
0.1
  9
$FILLETRAD
 40
0.0
  9
$AUNITS
 70
     0
  9
$AUPREC
 70
     0
  9
$MENU
  1
.
  9
$ELEVATION
 40
0.0
  9
$PELEVATION
 40
0.0
  9
$THICKNESS
 40
0.0
  9
$LIMCHECK
 70
     0
  9
$BLIPMODE
 70
     0
  9
$CHAMFERA
 40
0.5
  9
$CHAMFERB
 40
0.5
  9
$SKPOLY
 70
     1
  9
$TDCREATE
 40
2452012.34559
  9
$TDUPDATE
 40
2452031.674433
  9
$TDINDWG
 40
0.107962
  9
$TDUSRTIMER
 40
0.107962
  9
$USRTIMER
 70
     1
  9
$ANGBASE
 50
0.0
  9
$ANGDIR
 70
     0
  9
$PDMODE
 70
     0
  9
$PDSIZE
 40
0.0
  9
$PLINEWID
 40
0.0
  9
$COORDS
 70
     1
  9
$SPLFRAME
 70
     0
  9
$SPLINETYPE
 70
     6
  9
$SPLINESEGS
 70
     8
  9
$ATTDIA
 70
     1
  9
$ATTREQ
 70
     1
  9
$HANDLING
 70
     1
  9
$HANDSEED
  5
33D6
  9
$SURFTAB1
 70
     6
  9
$SURFTAB2
 70
     6
  9
$SURFTYPE
 70
     6
  9
$SURFU
 70
     6
  9
$SURFV
 70
     6
  9
$UCSNAME
  2

  9
$UCSORG
 10
0.0
 20
0.0
 30
0.0
  9
$UCSXDIR
 10
1.0
 20
0.0
 30
0.0
  9
$UCSYDIR
 10
0.0
 20
1.0
 30
0.0
  9
$PUCSNAME
  2

  9
$PUCSORG
 10
0.0
 20
0.0
 30
0.0
  9
$PUCSXDIR
 10
1.0
 20
0.0
 30
0.0
  9
$PUCSYDIR
 10
0.0
 20
1.0
 30
0.0
  9
$USERI1
 70
     0
  9
$USERI2
 70
     0
  9
$USERI3
 70
     0
  9
$USERI4
 70
     0
  9
$USERI5
 70
     0
  9
$USERR1
 40
0.0
  9
$USERR2
 40
0.0
  9
$USERR3
 40
0.0
  9
$USERR4
 40
0.0
  9
$USERR5
 40
0.0
  9
$WORLDVIEW
 70
     1
  9
$SHADEDGE
 70
     3
  9
$SHADEDIF
 70
    70
  9
$TILEMODE
 70
     1
  9
$MAXACTVP
 70
    48
  9
$PLIMCHECK
 70
     0
  9
$PEXTMIN
 10
1.000000E+020
 20
1.000000E+020
 30
1.000000E+020
  9
$PEXTMAX
 10
-1.000000E+020
 20
-1.000000E+020
 30
-1.000000E+020
  9
$PLIMMIN
 10
0.0
 20
0.0
  9
$PLIMMAX
 10
12.0
 20
9.0
  9
$UNITMODE
 70
     0
  9
$VISRETAIN
 70
     1
  9
$PLINEGEN
 70
     0
  9
$PSLTSCALE
 70
     1
  0
ENDSEC
  0
SECTION
  2
TABLES
  0
TABLE
  2
VPORT
 70
     2
  0
VPORT
  2
*ACTIVE
 70
     0
 10
0.0
 20
0.0
 11
1.0
 21
1.0
 12
50.186353
 22
29.33315
 13
0.0
 23
0.0
 14
0.5
 24
0.5
 15
1.333325
 25
1.333325
 16
0.0
 26
0.0
 36
1.0
 17
0.0
 27
0.0
 37
0.0
 40
58.6663
 41
1.710909
 42
50.0
 43
0.0
 44
0.0
 50
0.0
 51
0.0
 71
     0
 72
   100
 73
     1
 74
     0
 75
     0
 76
     0
 77
     0
 78
     0
  0
ENDTAB
  0
TABLE
  2
LTYPE
 70
     4
  0
LTYPE
  2
CONTINUOUS
 70
     0
  3
Solid line
 72
    65
 73
     0
 40
0.0
  0
LTYPE
  2
CENTER
 70
     0
  3
____ _ ____ _ ____ _ ____ _ ____ _ ____ _ ____ 
 72
    65
 73
     4
 40
2.0
 49
1.25
 49
-0.25
 49
0.25
 49
-0.25
  0
LTYPE
  2
HIDDEN
 70
     0
  3
__ __ __ __ __ __ __ __ __ __ __ __ __ __ __ __
 72
    65
 73
     2
 40
0.375
 49
0.25
 49
-0.125
  0
LTYPE
  2
PHANTOM
 70
     0
  3
Phantom ______  __  __  ______  __  __  ______
 72
    65
 73
     6
 40
2.5
 49
1.25
 49
-0.25
 49
0.25
 49
-0.25
 49
0.25
 49
-0.25
  0
ENDTAB
  0
TABLE
  2
LAYER
 70
    12
  0
LAYER
  2
0
 70
     0
 62
     7
  6
CONTINUOUS
  0
LAYER
  2
BORDER
 70
     0
 62
     7
  6
CONTINUOUS
  0
LAYER
  2
CENTERLINE
 70
     0
 62
     7
  6
CENTER
  0
LAYER
  2
HIDDEN
 70
     0
 62
     7
  6
HIDDEN
  0
LAYER
  2
HIDDEN-1
 70
     0
 62
     7
  6
HIDDEN
  0
LAYER
  2
DIMENSION
 70
     0
 62
     7
  6
CONTINUOUS
  0
LAYER
  2
NOTES
 70
     0
 62
     7
  6
CONTINUOUS
  0
LAYER
  2
DEFPOINTS
 70
     0
 62
     7
  6
CONTINUOUS
  0
LAYER
  2
HW-OBJ
 70
     0
 62
     7
  6
CONTINUOUS
  0
LAYER
  2
HW-HID
 70
     0
 62
     7
  6
CONTINUOUS
  0
LAYER
  2
CURRENT_SCALE_SETTING
 70
     0
 62
     7
  6
CONTINUOUS
  0
LAYER
  2
DIMENSON
 70
     0
 62
     7
  6
CONTINUOUS
  0
ENDTAB
  0
TABLE
  2
STYLE
 70
     2
  0
STYLE
  2
STANDARD
 70
     0
 40
0.0
 41
1.0
 50
0.0
 71
     0
 42
0.2
  3
txt
  4

  0
STYLE
  2
MASTER
 70
     0
 40
0.0
 41
0.8
 50
0.0
 71
     0
 42
0.666663
  3
romans.shx
  4

  0
ENDTAB
  0
TABLE
  2
VIEW
 70
     1
  0
VIEW
  2
VIEW_LIMITS
 70
     0
 40
58.6663
 10
45.33305
 20
29.33315
 41
90.6661
 11
0.0
 21
0.0
 31
1.0
 12
0.0
 22
0.0
 32
0.0
 42
50.0
 43
0.0
 44
0.0
 50
0.0
 71
     0
  0
ENDTAB
  0
TABLE
  2
UCS
 70
     0
  0
ENDTAB
  0
TABLE
  2
APPID
 70
     4
  0
APPID
  2
ACAD
 70
     0
  0
APPID
  2
MASTER_SIZING
 70
     0
  0
APPID
  2
PAPERSPACE
 70
     0
  0
APPID
  2
MASTER-TITLE
 70
     0
  0
ENDTAB
  0
TABLE
  2
DIMSTYLE
 70
     2
  0
DIMSTYLE
  2
STANDARD
 70
     0
  3

  4

  5

  6

  7

 40
1.0
 41
0.18
 42
0.0625
 43
0.38
 44
0.18
 45
0.0
 46
0.0
 47
0.0
 48
0.0
140
0.18
141
0.09
142
0.0
143
25.4
144
1.0
145
0.0
146
1.0
147
0.09
 71
     0
 72
     0
 73
     1
 74
     1
 75
     0
 76
     0
 77
     0
 78
     0
170
     0
171
     2
172
     0
173
     0
174
     0
175
     0
176
     0
177
     0
178
     0
  0
DIMSTYLE
  2
ENGLISH
 70
     0
  3

  4
mm
  5

  6

  7

 40
5.3333
 41
0.18
 42
0.0625
 43
0.38
 44
0.18
 45
0.0
 46
0.0
 47
0.0
 48
0.0
140
0.125
141
0.09
142
0.0
143
25.4
144
1.0
145
0.0
146
1.0
147
0.09
 71
     0
 72
     0
 73
     1
 74
     1
 75
     0
 76
     0
 77
     0
 78
     0
170
     0
171
     2
172
     0
173
     0
174
     0
175
     0
176
     0
177
     0
178
     0
  0
ENDTAB
  0
ENDSEC
  0
SECTION
  2
BLOCKS
  0
BLOCK
  8
0
  2
$MODEL_SPACE
 70
     0
 10
0.0
 20
0.0
 30
0.0
  3
$MODEL_SPACE
  1

  0
ENDBLK
  5
1B
  8
0
  0
BLOCK
 67
     1
  8
0
  2
$PAPER_SPACE
 70
     0
 10
0.0
 20
0.0
 30
0.0
  3
$PAPER_SPACE
  1

  0
ENDBLK
  5
18
 67
     1
  8
0
  0
BLOCK
  8
0
  2
MASTER-BORDER
 70
     0
 10
0.0
 20
0.0
 30
0.0
  3
MASTER-BORDER
  1

  0
POLYLINE
  5
54
  8
BORDER
 66
     1
 10
0.0
 20
0.0
 30
0.0
 70
     1
  0
VERTEX
  5
2E48
  8
BORDER
 10
0.5
 20
0.5
 30
0.0
  0
VERTEX
  5
2E49
  8
BORDER
 10
16.5
 20
0.5
 30
0.0
  0
VERTEX
  5
2E4A
  8
BORDER
 10
16.5
 20
10.5
 30
0.0
  0
VERTEX
  5
2E4B
  8
BORDER
 10
0.5
 20
10.5
 30
0.0
  0
SEQEND
  5
2E4C
  8
BORDER
  0
ENDBLK
  5
55
  8
0
  0
BLOCK
  8
0
  2
*X1
 70
     1
 10
0.0
 20
0.0
 30
0.0
  3
*X1
  1

  0
LINE
  5
5A
  8
0
 62
     0
 10
5.453968
 20
1.575
 30
0.0
 11
5.807877
 21
1.575
 31
0.0
  0
LINE
  5
5B
  8
0
 62
     0
 10
5.456968
 20
1.582
 30
0.0
 11
5.810877
 21
1.582
 31
0.0
  0
LINE
  5
5C
  8
0
 62
     0
 10
5.459968
 20
1.589
 30
0.0
 11
5.813877
 21
1.589
 31
0.0
  0
LINE
  5
5D
  8
0
 62
     0
 10
5.462968
 20
1.596
 30
0.0
 11
5.816877
 21
1.596
 31
0.0
  0
LINE
  5
5E
  8
0
 62
     0
 10
5.465968
 20
1.603
 30
0.0
 11
5.819877
 21
1.603
 31
0.0
  0
LINE
  5
5F
  8
0
 62
     0
 10
5.468968
 20
1.61
 30
0.0
 11
5.822877
 21
1.61
 31
0.0
  0
LINE
  5
60
  8
0
 62
     0
 10
5.471968
 20
1.617
 30
0.0
 11
5.825877
 21
1.617
 31
0.0
  0
LINE
  5
61
  8
0
 62
     0
 10
5.474968
 20
1.624
 30
0.0
 11
5.828877
 21
1.624
 31
0.0
  0
LINE
  5
62
  8
0
 62
     0
 10
5.477968
 20
1.631
 30
0.0
 11
5.831877
 21
1.631
 31
0.0
  0
LINE
  5
63
  8
0
 62
     0
 10
5.480968
 20
1.638
 30
0.0
 11
5.834877
 21
1.638
 31
0.0
  0
LINE
  5
64
  8
0
 62
     0
 10
5.483968
 20
1.645
 30
0.0
 11
5.837877
 21
1.645
 31
0.0
  0
LINE
  5
65
  8
0
 62
     0
 10
5.486968
 20
1.652
 30
0.0
 11
5.840877
 21
1.652
 31
0.0
  0
LINE
  5
66
  8
0
 62
     0
 10
5.489968
 20
1.659
 30
0.0
 11
5.843877
 21
1.659
 31
0.0
  0
LINE
  5
67
  8
0
 62
     0
 10
5.492968
 20
1.666
 30
0.0
 11
5.846877
 21
1.666
 31
0.0
  0
LINE
  5
68
  8
0
 62
     0
 10
5.495968
 20
1.673
 30
0.0
 11
5.849877
 21
1.673
 31
0.0
  0
LINE
  5
69
  8
0
 62
     0
 10
5.498968
 20
1.68
 30
0.0
 11
5.852877
 21
1.68
 31
0.0
  0
LINE
  5
6A
  8
0
 62
     0
 10
5.511085
 20
1.428
 30
0.0
 11
5.62476
 21
1.428
 31
0.0
  0
LINE
  5
6B
  8
0
 62
     0
 10
5.508085
 20
1.421
 30
0.0
 11
5.62176
 21
1.421
 31
0.0
  0
LINE
  5
6C
  8
0
 62
     0
 10
5.505085
 20
1.414
 30
0.0
 11
5.61876
 21
1.414
 31
0.0
  0
LINE
  5
6D
  8
0
 62
     0
 10
5.502085
 20
1.407
 30
0.0
 11
5.61576
 21
1.407
 31
0.0
  0
LINE
  5
6E
  8
0
 62
     0
 10
5.499085
 20
1.4
 30
0.0
 11
5.61276
 21
1.4
 31
0.0
  0
LINE
  5
6F
  8
0
 62
     0
 10
5.496085
 20
1.393
 30
0.0
 11
5.60976
 21
1.393
 31
0.0
  0
LINE
  5
70
  8
0
 62
     0
 10
5.493085
 20
1.386
 30
0.0
 11
5.60676
 21
1.386
 31
0.0
  0
LINE
  5
71
  8
0
 62
     0
 10
5.490085
 20
1.379
 30
0.0
 11
5.60376
 21
1.379
 31
0.0
  0
LINE
  5
72
  8
0
 62
     0
 10
5.487085
 20
1.372
 30
0.0
 11
5.60076
 21
1.372
 31
0.0
  0
LINE
  5
73
  8
0
 62
     0
 10
5.484085
 20
1.365
 30
0.0
 11
5.59776
 21
1.365
 31
0.0
  0
LINE
  5
74
  8
0
 62
     0
 10
5.481085
 20
1.358
 30
0.0
 11
5.59476
 21
1.358
 31
0.0
  0
LINE
  5
75
  8
0
 62
     0
 10
5.478085
 20
1.351
 30
0.0
 11
5.59176
 21
1.351
 31
0.0
  0
LINE
  5
76
  8
0
 62
     0
 10
5.475085
 20
1.344
 30
0.0
 11
5.58876
 21
1.344
 31
0.0
  0
LINE
  5
77
  8
0
 62
     0
 10
5.472085
 20
1.337
 30
0.0
 11
5.58576
 21
1.337
 31
0.0
  0
LINE
  5
78
  8
0
 62
     0
 10
5.469085
 20
1.33
 30
0.0
 11
5.58276
 21
1.33
 31
0.0
  0
LINE
  5
79
  8
0
 62
     0
 10
5.466085
 20
1.323
 30
0.0
 11
5.57976
 21
1.323
 31
0.0
  0
ENDBLK
  5
7B
  8
0
  0
BLOCK
  8
0
  2
*X2
 70
     1
 10
0.0
 20
0.0
 30
0.0
  3
*X2
  1

  0
LINE
  5
7D
  8
0
 62
     0
 10
5.838431
 20
1.575
 30
0.0
 11
6.177018
 21
1.575
 31
0.0
  0
LINE
  5
7E
  8
0
 62
     0
 10
5.842373
 20
1.582
 30
0.0
 11
6.180018
 21
1.582
 31
0.0
  0
LINE
  5
7F
  8
0
 62
     0
 10
5.846611
 20
1.589
 30
0.0
 11
6.183018
 21
1.589
 31
0.0
  0
LINE
  5
80
  8
0
 62
     0
 10
5.851164
 20
1.596
 30
0.0
 11
6.186018
 21
1.596
 31
0.0
  0
LINE
  5
81
  8
0
 62
     0
 10
5.856051
 20
1.603
 30
0.0
 11
6.189018
 21
1.603
 31
0.0
  0
LINE
  5
82
  8
0
 62
     0
 10
5.861297
 20
1.61
 30
0.0
 11
6.192018
 21
1.61
 31
0.0
  0
LINE
  5
83
  8
0
 62
     0
 10
5.86693
 20
1.617
 30
0.0
 11
6.195018
 21
1.617
 31
0.0
  0
LINE
  5
84
  8
0
 62
     0
 10
5.873042
 20
1.624
 30
0.0
 11
6.198018
 21
1.624
 31
0.0
  0
LINE
  5
85
  8
0
 62
     0
 10
5.879781
 20
1.631
 30
0.0
 11
6.201018
 21
1.631
 31
0.0
  0
LINE
  5
86
  8
0
 62
     0
 10
5.887247
 20
1.638
 30
0.0
 11
6.204018
 21
1.638
 31
0.0
  0
LINE
  5
87
  8
0
 62
     0
 10
5.895574
 20
1.645
 30
0.0
 11
6.207018
 21
1.645
 31
0.0
  0
LINE
  5
88
  8
0
 62
     0
 10
5.904954
 20
1.652
 30
0.0
 11
6.210018
 21
1.652
 31
0.0
  0
LINE
  5
89
  8
0
 62
     0
 10
5.91568
 20
1.659
 30
0.0
 11
6.213018
 21
1.659
 31
0.0
  0
LINE
  5
8A
  8
0
 62
     0
 10
5.928514
 20
1.666
 30
0.0
 11
6.216018
 21
1.666
 31
0.0
  0
LINE
  5
8B
  8
0
 62
     0
 10
5.945646
 20
1.673
 30
0.0
 11
6.219018
 21
1.673
 31
0.0
  0
LINE
  5
8C
  8
0
 62
     0
 10
5.977809
 20
1.68
 30
0.0
 11
6.222018
 21
1.68
 31
0.0
  0
LINE
  5
8D
  8
0
 62
     0
 10
5.810219
 20
1.428
 30
0.0
 11
6.114018
 21
1.428
 31
0.0
  0
LINE
  5
8E
  8
0
 62
     0
 10
5.811489
 20
1.421
 30
0.0
 11
6.111018
 21
1.421
 31
0.0
  0
LINE
  5
8F
  8
0
 62
     0
 10
5.813027
 20
1.414
 30
0.0
 11
6.108018
 21
1.414
 31
0.0
  0
LINE
  5
90
  8
0
 62
     0
 10
5.814898
 20
1.407
 30
0.0
 11
6.105018
 21
1.407
 31
0.0
  0
LINE
  5
91
  8
0
 62
     0
 10
5.817144
 20
1.4
 30
0.0
 11
6.102018
 21
1.4
 31
0.0
  0
LINE
  5
92
  8
0
 62
     0
 10
5.819782
 20
1.393
 30
0.0
 11
6.099018
 21
1.393
 31
0.0
  0
LINE
  5
93
  8
0
 62
     0
 10
5.822835
 20
1.386
 30
0.0
 11
6.096018
 21
1.386
 31
0.0
  0
LINE
  5
94
  8
0
 62
     0
 10
5.826334
 20
1.379
 30
0.0
 11
6.093018
 21
1.379
 31
0.0
  0
LINE
  5
95
  8
0
 62
     0
 10
5.830314
 20
1.372
 30
0.0
 11
6.090018
 21
1.372
 31
0.0
  0
LINE
  5
96
  8
0
 62
     0
 10
5.834822
 20
1.365
 30
0.0
 11
6.087018
 21
1.365
 31
0.0
  0
LINE
  5
97
  8
0
 62
     0
 10
5.839922
 20
1.358
 30
0.0
 11
6.084018
 21
1.358
 31
0.0
  0
LINE
  5
98
  8
0
 62
     0
 10
5.845922
 20
1.351
 30
0.0
 11
6.081018
 21
1.351
 31
0.0
  0
LINE
  5
99
  8
0
 62
     0
 10
5.853204
 20
1.344
 30
0.0
 11
6.078018
 21
1.344
 31
0.0
  0
LINE
  5
9A
  8
0
 62
     0
 10
5.862265
 20
1.337
 30
0.0
 11
6.075018
 21
1.337
 31
0.0
  0
LINE
  5
9B
  8
0
 62
     0
 10
5.874173
 20
1.33
 30
0.0
 11
6.072018
 21
1.33
 31
0.0
  0
LINE
  5
9C
  8
0
 62
     0
 10
5.89256
 20
1.323
 30
0.0
 11
6.069018
 21
1.323
 31
0.0
  0
ENDBLK
  5
9E
  8
0
  0
BLOCK
  8
0
  2
*X3
 70
     1
 10
0.0
 20
0.0
 30
0.0
  3
*X3
  1

  0
LINE
  5
A0
  8
0
 62
     0
 10
6.221546
 20
1.575
 30
0.0
 11
6.335221
 21
1.575
 31
0.0
  0
LINE
  5
A1
  8
0
 62
     0
 10
6.224546
 20
1.582
 30
0.0
 11
6.338221
 21
1.582
 31
0.0
  0
LINE
  5
A2
  8
0
 62
     0
 10
6.227546
 20
1.589
 30
0.0
 11
6.341221
 21
1.589
 31
0.0
  0
LINE
  5
A3
  8
0
 62
     0
 10
6.230546
 20
1.596
 30
0.0
 11
6.344221
 21
1.596
 31
0.0
  0
LINE
  5
A4
  8
0
 62
     0
 10
6.233546
 20
1.603
 30
0.0
 11
6.347221
 21
1.603
 31
0.0
  0
LINE
  5
A5
  8
0
 62
     0
 10
6.236546
 20
1.61
 30
0.0
 11
6.350221
 21
1.61
 31
0.0
  0
LINE
  5
A6
  8
0
 62
     0
 10
6.239546
 20
1.617
 30
0.0
 11
6.353221
 21
1.617
 31
0.0
  0
LINE
  5
A7
  8
0
 62
     0
 10
6.242546
 20
1.624
 30
0.0
 11
6.356221
 21
1.624
 31
0.0
  0
LINE
  5
A8
  8
0
 62
     0
 10
6.245546
 20
1.631
 30
0.0
 11
6.359221
 21
1.631
 31
0.0
  0
LINE
  5
A9
  8
0
 62
     0
 10
6.248546
 20
1.638
 30
0.0
 11
6.362221
 21
1.638
 31
0.0
  0
LINE
  5
AA
  8
0
 62
     0
 10
6.251546
 20
1.645
 30
0.0
 11
6.365221
 21
1.645
 31
0.0
  0
LINE
  5
AB
  8
0
 62
     0
 10
6.254546
 20
1.652
 30
0.0
 11
6.368221
 21
1.652
 31
0.0
  0
LINE
  5
AC
  8
0
 62
     0
 10
6.257546
 20
1.659
 30
0.0
 11
6.371221
 21
1.659
 31
0.0
  0
LINE
  5
AD
  8
0
 62
     0
 10
6.260546
 20
1.666
 30
0.0
 11
6.374221
 21
1.666
 31
0.0
  0
LINE
  5
AE
  8
0
 62
     0
 10
6.263546
 20
1.673
 30
0.0
 11
6.377221
 21
1.673
 31
0.0
  0
LINE
  5
AF
  8
0
 62
     0
 10
6.266546
 20
1.68
 30
0.0
 11
6.380221
 21
1.68
 31
0.0
  0
LINE
  5
B0
  8
0
 62
     0
 10
6.158546
 20
1.428
 30
0.0
 11
6.272221
 21
1.428
 31
0.0
  0
LINE
  5
B1
  8
0
 62
     0
 10
6.155546
 20
1.421
 30
0.0
 11
6.269221
 21
1.421
 31
0.0
  0
LINE
  5
B2
  8
0
 62
     0
 10
6.152546
 20
1.414
 30
0.0
 11
6.266221
 21
1.414
 31
0.0
  0
LINE
  5
B3
  8
0
 62
     0
 10
6.149546
 20
1.407
 30
0.0
 11
6.263221
 21
1.407
 31
0.0
  0
LINE
  5
B4
  8
0
 62
     0
 10
6.146546
 20
1.4
 30
0.0
 11
6.260221
 21
1.4
 31
0.0
  0
LINE
  5
B5
  8
0
 62
     0
 10
6.143546
 20
1.393
 30
0.0
 11
6.257221
 21
1.393
 31
0.0
  0
LINE
  5
B6
  8
0
 62
     0
 10
6.140546
 20
1.386
 30
0.0
 11
6.254221
 21
1.386
 31
0.0
  0
LINE
  5
B7
  8
0
 62
     0
 10
6.137546
 20
1.379
 30
0.0
 11
6.251221
 21
1.379
 31
0.0
  0
LINE
  5
B8
  8
0
 62
     0
 10
6.134546
 20
1.372
 30
0.0
 11
6.248221
 21
1.372
 31
0.0
  0
LINE
  5
B9
  8
0
 62
     0
 10
6.131546
 20
1.365
 30
0.0
 11
6.245221
 21
1.365
 31
0.0
  0
LINE
  5
BA
  8
0
 62
     0
 10
6.128546
 20
1.358
 30
0.0
 11
6.242221
 21
1.358
 31
0.0
  0
LINE
  5
BB
  8
0
 62
     0
 10
6.125546
 20
1.351
 30
0.0
 11
6.239221
 21
1.351
 31
0.0
  0
LINE
  5
BC
  8
0
 62
     0
 10
6.122546
 20
1.344
 30
0.0
 11
6.236221
 21
1.344
 31
0.0
  0
LINE
  5
BD
  8
0
 62
     0
 10
6.119546
 20
1.337
 30
0.0
 11
6.233221
 21
1.337
 31
0.0
  0
LINE
  5
BE
  8
0
 62
     0
 10
6.116546
 20
1.33
 30
0.0
 11
6.230221
 21
1.33
 31
0.0
  0
LINE
  5
BF
  8
0
 62
     0
 10
6.113546
 20
1.323
 30
0.0
 11
6.227221
 21
1.323
 31
0.0
  0
ENDBLK
  5
C1
  8
0
  0
BLOCK
  8
0
  2
TITLEB
 70
     2
 10
0.0
 20
0.0
 30
0.0
  3
TITLEB
  1

  0
LINE
  5
C3
  8
0
 10
0.0
 20
1.75
 30
0.0
 11
-8.75
 21
1.75
 31
0.0
  0
LINE
  5
C4
  8
0
 10
-8.75
 20
0.0
 30
0.0
 11
-8.75
 21
1.75
 31
0.0
  0
LINE
  5
C5
  8
0
 10
-3.75
 20
0.0
 30
0.0
 11
-3.75
 21
1.75
 31
0.0
  0
LINE
  5
C6
  8
0
 10
-4.75
 20
0.0
 30
0.0
 11
-4.75
 21
1.75
 31
0.0
  0
LINE
  5
C7
  8
0
 10
0.0
 20
1.25
 30
0.0
 11
-3.75
 21
1.25
 31
0.0
  0
LINE
  5
C8
  8
0
 10
0.0
 20
0.5
 30
0.0
 11
-3.75
 21
0.5
 31
0.0
  0
LINE
  5
C9
  8
0
 10
-1.75
 20
0.25
 30
0.0
 11
-3.75
 21
0.25
 31
0.0
  0
LINE
  5
CA
  8
0
 10
-2.75
 20
0.0
 30
0.0
 11
-2.75
 21
0.5
 31
0.0
  0
LINE
  5
CB
  8
0
 10
-1.75
 20
0.0
 30
0.0
 11
-1.75
 21
0.5
 31
0.0
  0
LINE
  5
CC
  8
0
 10
-8.75
 20
0.25
 30
0.0
 11
-4.75
 21
0.25
 31
0.0
  0
LINE
  5
CD
  8
0
 10
-8.75
 20
0.5
 30
0.0
 11
-4.75
 21
0.5
 31
0.0
  0
LINE
  5
CE
  8
0
 10
-8.75
 20
0.75
 30
0.0
 11
-4.75
 21
0.75
 31
0.0
  0
LINE
  5
CF
  8
0
 10
-8.75
 20
1.0
 30
0.0
 11
-4.75
 21
1.0
 31
0.0
  0
LINE
  5
D0
  8
0
 10
-8.75
 20
1.25
 30
0.0
 11
-4.75
 21
1.25
 31
0.0
  0
LINE
  5
D1
  8
0
 10
-8.75
 20
1.5
 30
0.0
 11
-4.75
 21
1.5
 31
0.0
  0
LINE
  5
D2
  8
0
 10
-8.5
 20
0.0
 30
0.0
 11
-8.5
 21
0.25
 31
0.0
  0
LINE
  5
D3
  8
0
 10
-5.25
 20
0.0
 30
0.0
 11
-5.25
 21
0.25
 31
0.0
  0
LINE
  5
D4
  8
0
 10
-6.0
 20
0.0
 30
0.0
 11
-6.0
 21
0.25
 31
0.0
  0
TEXT
  5
D5
  8
0
 10
-2.0625
 20
1.5
 30
0.0
 40
0.125
  1
7878 N. 86th STREET
 41
0.8
  0
TEXT
  5
D6
  8
0
 10
-2.0625
 20
1.3125
 30
0.0
 40
0.125
  1
MILWAUKEE, WI 53224
 41
0.8
  0
POLYLINE
  5
D7
  8
0
 66
     1
 10
0.0
 20
0.0
 30
0.0
 70
     1
  0
VERTEX
  5
2E4D
  8
0
 10
-3.285415
 20
1.3195
 30
0.0
  0
VERTEX
  5
2E4E
  8
0
 10
-3.238681
 20
1.428547
 30
0.0
  0
VERTEX
  5
2E4F
  8
0
 10
-3.125006
 20
1.428547
 30
0.0
  0
VERTEX
  5
2E50
  8
0
 10
-3.17174
 20
1.3195
 30
0.0
  0
SEQEND
  5
2E51
  8
0
  0
POLYLINE
  5
D8
  8
0
 66
     1
 10
0.0
 20
0.0
 30
0.0
 70
     1
  0
VERTEX
  5
2E52
  8
0
 10
-3.250818
 20
1.6805
 30
0.0
  0
VERTEX
  5
2E53
  8
0
 10
-2.896909
 20
1.6805
 30
0.0
  0
VERTEX
  5
2E54
  8
0
 10
-2.943643
 20
1.571453
 30
0.0
  0
VERTEX
  5
2E55
  8
0
 10
-3.297552
 20
1.571453
 30
0.0
  0
SEQEND
  5
2E56
  8
0
  0
POLYLINE
  5
D9
  8
0
 66
     1
 10
0.0
 20
0.0
 30
0.0
 70
     1
  0
VERTEX
  5
2E57
  8
0
 10
-3.189991
 20
1.542156
 30
0.0
  0
VERTEX
  5
2E58
  8
0
 10
-3.188457
 20
1.545734
 30
0.0
  0
VERTEX
  5
2E59
  8
0
 10
-3.074783
 20
1.545734
 30
0.0
  0
VERTEX
  5
2E5A
  8
0
 10
-3.076316
 20
1.542156
 30
0.0
  0
SEQEND
  5
2E5B
  8
0
  0
POLYLINE
  5
DA
  8
0
 66
     1
 10
0.0
 20
0.0
 30
0.0
 70
     1
  0
VERTEX
  5
2E5C
  8
0
 10
-3.202547
 20
1.512859
 30
0.0
  0
VERTEX
  5
2E5D
  8
0
 10
-3.201013
 20
1.516438
 30
0.0
  0
VERTEX
  5
2E5E
  8
0
 10
-3.087338
 20
1.516438
 30
0.0
  0
VERTEX
  5
2E5F
  8
0
 10
-3.088872
 20
1.512859
 30
0.0
  0
SEQEND
  5
2E60
  8
0
  0
POLYLINE
  5
DB
  8
0
 66
     1
 10
0.0
 20
0.0
 30
0.0
 70
     1
  0
VERTEX
  5
2E61
  8
0
 10
-3.215102
 20
1.483563
 30
0.0
  0
VERTEX
  5
2E62
  8
0
 10
-3.213569
 20
1.487141
 30
0.0
  0
VERTEX
  5
2E63
  8
0
 10
-3.099894
 20
1.487141
 30
0.0
  0
VERTEX
  5
2E64
  8
0
 10
-3.101428
 20
1.483563
 30
0.0
  0
SEQEND
  5
2E65
  8
0
  0
POLYLINE
  5
DC
  8
0
 66
     1
 10
0.0
 20
0.0
 30
0.0
 70
     1
  0
VERTEX
  5
2E66
  8
0
 10
-3.227658
 20
1.454266
 30
0.0
  0
VERTEX
  5
2E67
  8
0
 10
-3.226125
 20
1.457844
 30
0.0
  0
VERTEX
  5
2E68
  8
0
 10
-3.11245
 20
1.457844
 30
0.0
  0
VERTEX
  5
2E69
  8
0
 10
-3.113984
 20
1.454266
 30
0.0
  0
SEQEND
  5
2E6A
  8
0
  0
INSERT
  5
DD
  8
0
  2
*X1
 10
-8.75
 20
0.0
 30
0.0
  0
POLYLINE
  5
DE
  8
0
 66
     1
 10
0.0
 20
0.0
 30
0.0
 70
     1
  0
VERTEX
  5
2E6B
  8
0
 10
-2.762231
 20
1.6805
 30
0.0
  0
VERTEX
  5
2E6C
  8
0
 10
-2.527768
 20
1.6805
 30
0.0
  0
VERTEX
  5
2E6D
  8
0
 10
-2.574503
 20
1.571453
 30
0.0
  0
VERTEX
  5
2E6E
  8
0
 10
-2.913459
 20
1.571453
 30
0.0
 42
-0.054429
  0
VERTEX
  5
2E6F
  8
0
 10
-2.882411
 20
1.617787
 30
0.0
 42
-0.084542
  0
VERTEX
  5
2E70
  8
0
 10
-2.832469
 20
1.660109
 30
0.0
 42
-0.106399
  0
VERTEX
  5
2E71
  8
0
 10
-2.77324
 20
1.679889
 30
0.0
 42
-0.027585
  0
SEQEND
  5
2E72
  8
0
  0
POLYLINE
  5
DF
  8
0
 66
     1
 10
0.0
 20
0.0
 30
0.0
 70
     1
  0
VERTEX
  5
2E73
  8
0
 10
-2.926512
 20
1.542156
 30
0.0
 42
-0.003726
  0
VERTEX
  5
2E74
  8
0
 10
-2.925148
 20
1.545734
 30
0.0
  0
VERTEX
  5
2E75
  8
0
 10
-2.798667
 20
1.545734
 30
0.0
 42
0.007822
  0
VERTEX
  5
2E76
  8
0
 10
-2.80153
 20
1.542156
 30
0.0
  0
SEQEND
  5
2E77
  8
0
  0
POLYLINE
  5
E0
  8
0
 66
     1
 10
0.0
 20
0.0
 30
0.0
 70
     1
  0
VERTEX
  5
2E78
  8
0
 10
-2.940789
 20
1.483563
 30
0.0
 42
-0.00463
  0
VERTEX
  5
2E79
  8
0
 10
-2.940306
 20
1.487141
 30
0.0
  0
VERTEX
  5
2E7A
  8
0
 10
-2.828053
 20
1.487141
 30
0.0
 42
0.006268
  0
VERTEX
  5
2E7B
  8
0
 10
-2.828878
 20
1.483563
 30
0.0
  0
SEQEND
  5
2E7C
  8
0
  0
POLYLINE
  5
E1
  8
0
 66
     1
 10
0.0
 20
0.0
 30
0.0
 70
     1
  0
VERTEX
  5
2E7D
  8
0
 10
-2.942242
 20
1.454266
 30
0.0
 42
-0.004589
  0
VERTEX
  5
2E7E
  8
0
 10
-2.942301
 20
1.457844
 30
0.0
  0
VERTEX
  5
2E7F
  8
0
 10
-2.831832
 20
1.457844
 30
0.0
 42
0.010595
  0
VERTEX
  5
2E80
  8
0
 10
-2.831695
 20
1.454266
 30
0.0
  0
SEQEND
  5
2E81
  8
0
  0
POLYLINE
  5
E2
  8
0
 66
     1
 10
0.0
 20
0.0
 30
0.0
 70
     1
  0
VERTEX
  5
2E82
  8
0
 10
-2.831225
 20
1.319503
 30
0.0
 42
-0.10157
  0
VERTEX
  5
2E83
  8
0
 10
-2.870619
 20
1.327589
 30
0.0
 42
-0.129518
  0
VERTEX
  5
2E84
  8
0
 10
-2.910794
 20
1.35893
 30
0.0
 42
-0.106399
  0
VERTEX
  5
2E85
  8
0
 10
-2.937318
 20
1.415461
 30
0.0
 42
-0.017101
  0
VERTEX
  5
2E86
  8
0
 10
-2.939869
 20
1.428547
 30
0.0
  0
VERTEX
  5
2E87
  8
0
 10
-2.635748
 20
1.428547
 30
0.0
  0
VERTEX
  5
2E88
  8
0
 10
-2.682482
 20
1.3195
 30
0.0
  0
SEQEND
  5
2E89
  8
0
  0
ARC
  5
E3
  8
0
 10
-2.685747
 20
1.452436
 30
0.0
 40
0.139477
 50
156.801409
 51
157.478869
  0
POLYLINE
  5
E4
  8
0
 66
     1
 10
0.0
 20
0.0
 30
0.0
 70
     1
  0
VERTEX
  5
2E8A
  8
0
 10
-2.81918
 20
1.512859
 30
0.0
  0
VERTEX
  5
2E8B
  8
0
 10
-2.93548
 20
1.512859
 30
0.0
 42
-0.003588
  0
VERTEX
  5
2E8C
  8
0
 10
-2.934587
 20
1.516438
 30
0.0
  0
VERTEX
  5
2E8D
  8
0
 10
-2.817501
 20
1.516438
 30
0.0
 42
0.006746
  0
SEQEND
  5
2E8E
  8
0
  0
INSERT
  5
E5
  8
0
  2
*X2
 10
-8.75
 20
0.0
 30
0.0
  0
POLYLINE
  5
E6
  8
0
 66
     1
 10
0.0
 20
0.0
 30
0.0
 70
     1
  0
VERTEX
  5
2E8F
  8
0
 10
-2.416299
 20
1.571453
 30
0.0
  0
VERTEX
  5
2E90
  8
0
 10
-2.529974
 20
1.571453
 30
0.0
  0
VERTEX
  5
2E91
  8
0
 10
-2.48324
 20
1.6805
 30
0.0
  0
VERTEX
  5
2E92
  8
0
 10
-2.369565
 20
1.6805
 30
0.0
  0
SEQEND
  5
2E93
  8
0
  0
POLYLINE
  5
E7
  8
0
 66
     1
 10
0.0
 20
0.0
 30
0.0
 70
     1
  0
VERTEX
  5
2E94
  8
0
 10
-2.54253
 20
1.542156
 30
0.0
  0
VERTEX
  5
2E95
  8
0
 10
-2.540996
 20
1.545734
 30
0.0
  0
VERTEX
  5
2E96
  8
0
 10
-2.427322
 20
1.545734
 30
0.0
  0
VERTEX
  5
2E97
  8
0
 10
-2.428855
 20
1.542156
 30
0.0
  0
SEQEND
  5
2E98
  8
0
  0
POLYLINE
  5
E8
  8
0
 66
     1
 10
0.0
 20
0.0
 30
0.0
 70
     1
  0
VERTEX
  5
2E99
  8
0
 10
-2.555086
 20
1.512859
 30
0.0
  0
VERTEX
  5
2E9A
  8
0
 10
-2.553552
 20
1.516438
 30
0.0
  0
VERTEX
  5
2E9B
  8
0
 10
-2.439878
 20
1.516438
 30
0.0
  0
VERTEX
  5
2E9C
  8
0
 10
-2.441411
 20
1.512859
 30
0.0
  0
SEQEND
  5
2E9D
  8
0
  0
POLYLINE
  5
E9
  8
0
 66
     1
 10
0.0
 20
0.0
 30
0.0
 70
     1
  0
VERTEX
  5
2E9E
  8
0
 10
-2.567641
 20
1.483563
 30
0.0
  0
VERTEX
  5
2E9F
  8
0
 10
-2.566108
 20
1.487141
 30
0.0
  0
VERTEX
  5
2EA0
  8
0
 10
-2.452433
 20
1.487141
 30
0.0
  0
VERTEX
  5
2EA1
  8
0
 10
-2.453967
 20
1.483563
 30
0.0
  0
SEQEND
  5
2EA2
  8
0
  0
POLYLINE
  5
EA
  8
0
 66
     1
 10
0.0
 20
0.0
 30
0.0
 70
     1
  0
VERTEX
  5
2EA3
  8
0
 10
-2.580197
 20
1.454266
 30
0.0
  0
VERTEX
  5
2EA4
  8
0
 10
-2.578664
 20
1.457844
 30
0.0
  0
VERTEX
  5
2EA5
  8
0
 10
-2.464989
 20
1.457844
 30
0.0
  0
VERTEX
  5
2EA6
  8
0
 10
-2.466523
 20
1.454266
 30
0.0
  0
SEQEND
  5
2EA7
  8
0
  0
POLYLINE
  5
EB
  8
0
 66
     1
 10
0.0
 20
0.0
 30
0.0
 70
     1
  0
VERTEX
  5
2EA8
  8
0
 10
-2.637954
 20
1.3195
 30
0.0
  0
VERTEX
  5
2EA9
  8
0
 10
-2.59122
 20
1.428547
 30
0.0
  0
VERTEX
  5
2EAA
  8
0
 10
-2.477545
 20
1.428547
 30
0.0
  0
VERTEX
  5
2EAB
  8
0
 10
-2.524279
 20
1.3195
 30
0.0
  0
SEQEND
  5
2EAC
  8
0
  0
INSERT
  5
EC
  8
0
  2
*X3
 10
-8.75
 20
0.0
 30
0.0
  0
TEXT
  5
ED
  8
0
 10
-3.71875
 20
0.40625
 30
0.0
 40
0.0625
  1
DRN. BY
 41
0.8
  0
TEXT
  5
EE
  8
0
 10
-2.71875
 20
0.40625
 30
0.0
 40
0.0625
  1
DATE
 41
0.8
  0
TEXT
  5
EF
  8
0
 10
-1.71875
 20
0.40625
 30
0.0
 40
0.0625
  1
DWG. NO.
 41
0.8
  0
TEXT
  5
F0
  8
0
 10
-2.71875
 20
0.15625
 30
0.0
 40
0.0625
  1
APRVD.
 41
0.8
  0
TEXT
  5
F1
  8
0
 10
-3.71875
 20
0.15625
 30
0.0
 40
0.0625
  1
SCALE
 41
0.8
  0
TEXT
  5
F2
  8
0
 10
-4.59375
 20
1.625
 30
0.0
 40
0.09
  1
TOLERANCES
 41
0.8
  0
TEXT
  5
F3
  8
0
 10
-4.71875
 20
1.375
 30
0.0
 40
0.0625
  1
DECIMAL
 41
0.8
  0
TEXT
  5
F4
  8
0
 10
-4.71875
 20
0.65625
 30
0.0
 40
0.0625
  1
FRACTIONAL
 41
0.8
  0
TEXT
  5
F5
  8
0
 10
-4.71875
 20
0.28125
 30
0.0
 40
0.0625
  1
ANGULAR
 41
0.8
  0
LINE
  5
F6
  8
0
 10
-4.75
 20
1.46875
 30
0.0
 11
-3.75
 21
1.46875
 31
0.0
  0
TEXT
  5
F7
  8
0
 10
-4.625
 20
1.5
 30
0.0
 40
0.0625
  1
(EXCEPT AS NOTED)
 41
0.8
  0
LINE
  5
F8
  8
0
 10
-4.75
 20
0.375
 30
0.0
 11
-3.75
 21
0.375
 31
0.0
  0
LINE
  5
F9
  8
0
 10
-4.75
 20
0.75
 30
0.0
 11
-3.75
 21
0.75
 31
0.0
  0
TEXT
  5
FA
  8
0
 10
-4.6875
 20
1.09375
 30
0.0
 40
0.125
  1
.XX %%p
 41
0.8
  0
TEXT
  5
FB
  8
0
 10
-4.6875
 20
0.84375
 30
0.0
 40
0.125
  1
.XXX%%p
 41
0.8
  0
TEXT
  5
FC
  8
0
 10
-4.625
 20
0.46875
 30
0.0
 40
0.125
  1
%%p
 41
0.8
  0
TEXT
  5
FD
  8
0
 10
-4.625
 20
0.09375
 30
0.0
 40
0.125
  1
%%p
 41
0.8
  0
TEXT
  5
FE
  8
0
 10
-5.09375
 20
0.0625
 30
0.0
 40
0.125
  1
BY
 41
0.8
  0
TEXT
  5
FF
  8
0
 10
-8.71875
 20
0.0625
 30
0.0
 40
0.125
  1
NO
 41
0.8
  0
TEXT
  5
100
  8
0
 10
-7.53125
 20
0.0625
 30
0.0
 40
0.125
  1
REVISION
 41
0.8
  0
TEXT
  5
101
  8
0
 10
-5.8125
 20
0.0625
 30
0.0
 40
0.125
  1
DATE
 41
0.8
  0
TEXT
  5
102
  8
0
 10
-0.9375
 20
0.03125
 30
0.0
 40
0.09
  1
SHT.    OF
 41
0.8
  0
ATTDEF
  5
103
  8
0
 10
-1.28125
 20
0.25
 30
0.0
 40
0.1875
  1

 41
0.8
  3
DRAWING NUMBER
  2
DWGNO
 70
     0
  0
ATTDEF
  5
104
  8
0
 10
-3.34375
 20
0.28125
 30
0.0
 40
0.125
  1

 41
0.8
  3
DRAWN BY
  2
DRNBY
 70
     0
  0
ATTDEF
  5
105
  8
0
 10
-2.5
 20
0.28125
 30
0.0
 40
0.125
  1

 41
1.631757
 72
     5
 11
-1.78125
 21
0.28125
 31
0.0
  3
DRAWING DATE
  2
DATE
 70
     0
  0
ATTDEF
  5
106
  8
0
 10
-3.40625
 20
0.03125
 30
0.0
 40
0.125
  1

 41
0.8
  3
SCALE
  2
SCALE
 70
     0
  0
ATTDEF
  5
107
  8
0
 10
-2.40625
 20
0.03125
 30
0.0
 40
0.125
  1

 41
0.8
  3
APPROVED BY
  2
APRVD
 70
     0
  0
ATTDEF
  5
108
  8
0
 10
-0.65625
 20
0.03125
 30
0.0
 40
0.125
  1

 41
0.8
  3
SHEET
  2
SHT
 70
     0
  0
ATTDEF
  5
109
  8
0
 10
-0.28125
 20
0.03125
 30
0.0
 40
0.125
  1

 41
0.8
  3
OF SHEET
  2
OFSHT
 70
     0
  0
ATTDEF
  5
10A
  8
0
 10
-3.59375
 20
0.875
 30
0.0
 40
0.1875
  1

 41
0.8
  3
DESCRIPTION (LINE 1 OF 2)
  2
DESC1
 70
     0
  0
ATTDEF
  5
10B
  8
0
 10
-3.59375
 20
0.59375
 30
0.0
 40
0.1875
  1

 41
0.8
  3
DESCRIPTION (LINE 2 OF 2)
  2
DESC2
 70
     0
  0
ATTDEF
  5
10C
  8
0
 10
-4.21875
 20
1.09375
 30
0.0
 40
0.125
  1
.01
 41
0.8
  3
TOLERANCE .XX
  2
TOLXX
 70
     0
  0
ATTDEF
  5
10D
  8
0
 10
-4.21875
 20
0.84375
 30
0.0
 40
0.125
  1
.005
 41
0.8
  3
TOLERANCE .XXX
  2
TOLXXX
 70
     0
  0
ATTDEF
  5
10E
  8
0
 10
-4.46875
 20
0.46875
 30
0.0
 40
0.125
  1
1/32
 41
0.8
  3
TOLERANCE - FRACTIONAL
  2
TOLFRAC
 70
     0
  0
ATTDEF
  5
10F
  8
0
 10
-4.46875
 20
0.09375
 30
0.0
 40
0.125
  1
1/2%%d
 41
0.8
  3
TOLERANCE - ANGULAR
  2
TOLANG
 70
     0
  0
ATTDEF
  5
110
  8
0
 10
-1.59375
 20
0.09375
 30
0.0
 40
0.25
  1

 41
0.8
  3

  2
DWG.SIZE
 70
     0
  0
ENDBLK
  5
112
  8
0
  0
BLOCK
  8
0
  2
*X5
 70
     1
 10
0.0
 20
0.0
 30
0.0
  3
*X5
  1

  0
LINE
  5
125
  8
0
 62
     0
 10
5.453968
 20
1.575
 30
0.0
 11
5.807877
 21
1.575
 31
0.0
  0
LINE
  5
126
  8
0
 62
     0
 10
5.456968
 20
1.582
 30
0.0
 11
5.810877
 21
1.582
 31
0.0
  0
LINE
  5
127
  8
0
 62
     0
 10
5.459968
 20
1.589
 30
0.0
 11
5.813877
 21
1.589
 31
0.0
  0
LINE
  5
128
  8
0
 62
     0
 10
5.462968
 20
1.596
 30
0.0
 11
5.816877
 21
1.596
 31
0.0
  0
LINE
  5
129
  8
0
 62
     0
 10
5.465968
 20
1.603
 30
0.0
 11
5.819877
 21
1.603
 31
0.0
  0
LINE
  5
12A
  8
0
 62
     0
 10
5.468968
 20
1.61
 30
0.0
 11
5.822877
 21
1.61
 31
0.0
  0
LINE
  5
12B
  8
0
 62
     0
 10
5.471968
 20
1.617
 30
0.0
 11
5.825877
 21
1.617
 31
0.0
  0
LINE
  5
12C
  8
0
 62
     0
 10
5.474968
 20
1.624
 30
0.0
 11
5.828877
 21
1.624
 31
0.0
  0
LINE
  5
12D
  8
0
 62
     0
 10
5.477968
 20
1.631
 30
0.0
 11
5.831877
 21
1.631
 31
0.0
  0
LINE
  5
12E
  8
0
 62
     0
 10
5.480968
 20
1.638
 30
0.0
 11
5.834877
 21
1.638
 31
0.0
  0
LINE
  5
12F
  8
0
 62
     0
 10
5.483968
 20
1.645
 30
0.0
 11
5.837877
 21
1.645
 31
0.0
  0
LINE
  5
130
  8
0
 62
     0
 10
5.486968
 20
1.652
 30
0.0
 11
5.840877
 21
1.652
 31
0.0
  0
LINE
  5
131
  8
0
 62
     0
 10
5.489968
 20
1.659
 30
0.0
 11
5.843877
 21
1.659
 31
0.0
  0
LINE
  5
132
  8
0
 62
     0
 10
5.492968
 20
1.666
 30
0.0
 11
5.846877
 21
1.666
 31
0.0
  0
LINE
  5
133
  8
0
 62
     0
 10
5.495968
 20
1.673
 30
0.0
 11
5.849877
 21
1.673
 31
0.0
  0
LINE
  5
134
  8
0
 62
     0
 10
5.498968
 20
1.68
 30
0.0
 11
5.852877
 21
1.68
 31
0.0
  0
LINE
  5
135
  8
0
 62
     0
 10
5.511085
 20
1.428
 30
0.0
 11
5.62476
 21
1.428
 31
0.0
  0
LINE
  5
136
  8
0
 62
     0
 10
5.508085
 20
1.421
 30
0.0
 11
5.62176
 21
1.421
 31
0.0
  0
LINE
  5
137
  8
0
 62
     0
 10
5.505085
 20
1.414
 30
0.0
 11
5.61876
 21
1.414
 31
0.0
  0
LINE
  5
138
  8
0
 62
     0
 10
5.502085
 20
1.407
 30
0.0
 11
5.61576
 21
1.407
 31
0.0
  0
LINE
  5
139
  8
0
 62
     0
 10
5.499085
 20
1.4
 30
0.0
 11
5.61276
 21
1.4
 31
0.0
  0
LINE
  5
13A
  8
0
 62
     0
 10
5.496085
 20
1.393
 30
0.0
 11
5.60976
 21
1.393
 31
0.0
  0
LINE
  5
13B
  8
0
 62
     0
 10
5.493085
 20
1.386
 30
0.0
 11
5.60676
 21
1.386
 31
0.0
  0
LINE
  5
13C
  8
0
 62
     0
 10
5.490085
 20
1.379
 30
0.0
 11
5.60376
 21
1.379
 31
0.0
  0
LINE
  5
13D
  8
0
 62
     0
 10
5.487085
 20
1.372
 30
0.0
 11
5.60076
 21
1.372
 31
0.0
  0
LINE
  5
13E
  8
0
 62
     0
 10
5.484085
 20
1.365
 30
0.0
 11
5.59776
 21
1.365
 31
0.0
  0
LINE
  5
13F
  8
0
 62
     0
 10
5.481085
 20
1.358
 30
0.0
 11
5.59476
 21
1.358
 31
0.0
  0
LINE
  5
140
  8
0
 62
     0
 10
5.478085
 20
1.351
 30
0.0
 11
5.59176
 21
1.351
 31
0.0
  0
LINE
  5
141
  8
0
 62
     0
 10
5.475085
 20
1.344
 30
0.0
 11
5.58876
 21
1.344
 31
0.0
  0
LINE
  5
142
  8
0
 62
     0
 10
5.472085
 20
1.337
 30
0.0
 11
5.58576
 21
1.337
 31
0.0
  0
LINE
  5
143
  8
0
 62
     0
 10
5.469085
 20
1.33
 30
0.0
 11
5.58276
 21
1.33
 31
0.0
  0
LINE
  5
144
  8
0
 62
     0
 10
5.466085
 20
1.323
 30
0.0
 11
5.57976
 21
1.323
 31
0.0
  0
ENDBLK
  5
146
  8
0
  0
BLOCK
  8
0
  2
*X6
 70
     1
 10
0.0
 20
0.0
 30
0.0
  3
*X6
  1

  0
LINE
  5
148
  8
0
 62
     0
 10
5.838431
 20
1.575
 30
0.0
 11
6.177018
 21
1.575
 31
0.0
  0
LINE
  5
149
  8
0
 62
     0
 10
5.842373
 20
1.582
 30
0.0
 11
6.180018
 21
1.582
 31
0.0
  0
LINE
  5
14A
  8
0
 62
     0
 10
5.846611
 20
1.589
 30
0.0
 11
6.183018
 21
1.589
 31
0.0
  0
LINE
  5
14B
  8
0
 62
     0
 10
5.851164
 20
1.596
 30
0.0
 11
6.186018
 21
1.596
 31
0.0
  0
LINE
  5
14C
  8
0
 62
     0
 10
5.856051
 20
1.603
 30
0.0
 11
6.189018
 21
1.603
 31
0.0
  0
LINE
  5
14D
  8
0
 62
     0
 10
5.861297
 20
1.61
 30
0.0
 11
6.192018
 21
1.61
 31
0.0
  0
LINE
  5
14E
  8
0
 62
     0
 10
5.86693
 20
1.617
 30
0.0
 11
6.195018
 21
1.617
 31
0.0
  0
LINE
  5
14F
  8
0
 62
     0
 10
5.873042
 20
1.624
 30
0.0
 11
6.198018
 21
1.624
 31
0.0
  0
LINE
  5
150
  8
0
 62
     0
 10
5.879781
 20
1.631
 30
0.0
 11
6.201018
 21
1.631
 31
0.0
  0
LINE
  5
151
  8
0
 62
     0
 10
5.887247
 20
1.638
 30
0.0
 11
6.204018
 21
1.638
 31
0.0
  0
LINE
  5
152
  8
0
 62
     0
 10
5.895574
 20
1.645
 30
0.0
 11
6.207018
 21
1.645
 31
0.0
  0
LINE
  5
153
  8
0
 62
     0
 10
5.904954
 20
1.652
 30
0.0
 11
6.210018
 21
1.652
 31
0.0
  0
LINE
  5
154
  8
0
 62
     0
 10
5.91568
 20
1.659
 30
0.0
 11
6.213018
 21
1.659
 31
0.0
  0
LINE
  5
155
  8
0
 62
     0
 10
5.928514
 20
1.666
 30
0.0
 11
6.216018
 21
1.666
 31
0.0
  0
LINE
  5
156
  8
0
 62
     0
 10
5.945646
 20
1.673
 30
0.0
 11
6.219018
 21
1.673
 31
0.0
  0
LINE
  5
157
  8
0
 62
     0
 10
5.977809
 20
1.68
 30
0.0
 11
6.222018
 21
1.68
 31
0.0
  0
LINE
  5
158
  8
0
 62
     0
 10
5.810219
 20
1.428
 30
0.0
 11
6.114018
 21
1.428
 31
0.0
  0
LINE
  5
159
  8
0
 62
     0
 10
5.811489
 20
1.421
 30
0.0
 11
6.111018
 21
1.421
 31
0.0
  0
LINE
  5
15A
  8
0
 62
     0
 10
5.813027
 20
1.414
 30
0.0
 11
6.108018
 21
1.414
 31
0.0
  0
LINE
  5
15B
  8
0
 62
     0
 10
5.814898
 20
1.407
 30
0.0
 11
6.105018
 21
1.407
 31
0.0
  0
LINE
  5
15C
  8
0
 62
     0
 10
5.817144
 20
1.4
 30
0.0
 11
6.102018
 21
1.4
 31
0.0
  0
LINE
  5
15D
  8
0
 62
     0
 10
5.819782
 20
1.393
 30
0.0
 11
6.099018
 21
1.393
 31
0.0
  0
LINE
  5
15E
  8
0
 62
     0
 10
5.822835
 20
1.386
 30
0.0
 11
6.096018
 21
1.386
 31
0.0
  0
LINE
  5
15F
  8
0
 62
     0
 10
5.826334
 20
1.379
 30
0.0
 11
6.093018
 21
1.379
 31
0.0
  0
LINE
  5
160
  8
0
 62
     0
 10
5.830314
 20
1.372
 30
0.0
 11
6.090018
 21
1.372
 31
0.0
  0
LINE
  5
161
  8
0
 62
     0
 10
5.834822
 20
1.365
 30
0.0
 11
6.087018
 21
1.365
 31
0.0
  0
LINE
  5
162
  8
0
 62
     0
 10
5.839922
 20
1.358
 30
0.0
 11
6.084018
 21
1.358
 31
0.0
  0
LINE
  5
163
  8
0
 62
     0
 10
5.845922
 20
1.351
 30
0.0
 11
6.081018
 21
1.351
 31
0.0
  0
LINE
  5
164
  8
0
 62
     0
 10
5.853204
 20
1.344
 30
0.0
 11
6.078018
 21
1.344
 31
0.0
  0
LINE
  5
165
  8
0
 62
     0
 10
5.862265
 20
1.337
 30
0.0
 11
6.075018
 21
1.337
 31
0.0
  0
LINE
  5
166
  8
0
 62
     0
 10
5.874173
 20
1.33
 30
0.0
 11
6.072018
 21
1.33
 31
0.0
  0
LINE
  5
167
  8
0
 62
     0
 10
5.89256
 20
1.323
 30
0.0
 11
6.069018
 21
1.323
 31
0.0
  0
ENDBLK
  5
169
  8
0
  0
BLOCK
  8
0
  2
*X7
 70
     1
 10
0.0
 20
0.0
 30
0.0
  3
*X7
  1

  0
LINE
  5
16B
  8
0
 62
     0
 10
6.221546
 20
1.575
 30
0.0
 11
6.335221
 21
1.575
 31
0.0
  0
LINE
  5
16C
  8
0
 62
     0
 10
6.224546
 20
1.582
 30
0.0
 11
6.338221
 21
1.582
 31
0.0
  0
LINE
  5
16D
  8
0
 62
     0
 10
6.227546
 20
1.589
 30
0.0
 11
6.341221
 21
1.589
 31
0.0
  0
LINE
  5
16E
  8
0
 62
     0
 10
6.230546
 20
1.596
 30
0.0
 11
6.344221
 21
1.596
 31
0.0
  0
LINE
  5
16F
  8
0
 62
     0
 10
6.233546
 20
1.603
 30
0.0
 11
6.347221
 21
1.603
 31
0.0
  0
LINE
  5
170
  8
0
 62
     0
 10
6.236546
 20
1.61
 30
0.0
 11
6.350221
 21
1.61
 31
0.0
  0
LINE
  5
171
  8
0
 62
     0
 10
6.239546
 20
1.617
 30
0.0
 11
6.353221
 21
1.617
 31
0.0
  0
LINE
  5
172
  8
0
 62
     0
 10
6.242546
 20
1.624
 30
0.0
 11
6.356221
 21
1.624
 31
0.0
  0
LINE
  5
173
  8
0
 62
     0
 10
6.245546
 20
1.631
 30
0.0
 11
6.359221
 21
1.631
 31
0.0
  0
LINE
  5
174
  8
0
 62
     0
 10
6.248546
 20
1.638
 30
0.0
 11
6.362221
 21
1.638
 31
0.0
  0
LINE
  5
175
  8
0
 62
     0
 10
6.251546
 20
1.645
 30
0.0
 11
6.365221
 21
1.645
 31
0.0
  0
LINE
  5
176
  8
0
 62
     0
 10
6.254546
 20
1.652
 30
0.0
 11
6.368221
 21
1.652
 31
0.0
  0
LINE
  5
177
  8
0
 62
     0
 10
6.257546
 20
1.659
 30
0.0
 11
6.371221
 21
1.659
 31
0.0
  0
LINE
  5
178
  8
0
 62
     0
 10
6.260546
 20
1.666
 30
0.0
 11
6.374221
 21
1.666
 31
0.0
  0
LINE
  5
179
  8
0
 62
     0
 10
6.263546
 20
1.673
 30
0.0
 11
6.377221
 21
1.673
 31
0.0
  0
LINE
  5
17A
  8
0
 62
     0
 10
6.266546
 20
1.68
 30
0.0
 11
6.380221
 21
1.68
 31
0.0
  0
LINE
  5
17B
  8
0
 62
     0
 10
6.158546
 20
1.428
 30
0.0
 11
6.272221
 21
1.428
 31
0.0
  0
LINE
  5
17C
  8
0
 62
     0
 10
6.155546
 20
1.421
 30
0.0
 11
6.269221
 21
1.421
 31
0.0
  0
LINE
  5
17D
  8
0
 62
     0
 10
6.152546
 20
1.414
 30
0.0
 11
6.266221
 21
1.414
 31
0.0
  0
LINE
  5
17E
  8
0
 62
     0
 10
6.149546
 20
1.407
 30
0.0
 11
6.263221
 21
1.407
 31
0.0
  0
LINE
  5
17F
  8
0
 62
     0
 10
6.146546
 20
1.4
 30
0.0
 11
6.260221
 21
1.4
 31
0.0
  0
LINE
  5
180
  8
0
 62
     0
 10
6.143546
 20
1.393
 30
0.0
 11
6.257221
 21
1.393
 31
0.0
  0
LINE
  5
181
  8
0
 62
     0
 10
6.140546
 20
1.386
 30
0.0
 11
6.254221
 21
1.386
 31
0.0
  0
LINE
  5
182
  8
0
 62
     0
 10
6.137546
 20
1.379
 30
0.0
 11
6.251221
 21
1.379
 31
0.0
  0
LINE
  5
183
  8
0
 62
     0
 10
6.134546
 20
1.372
 30
0.0
 11
6.248221
 21
1.372
 31
0.0
  0
LINE
  5
184
  8
0
 62
     0
 10
6.131546
 20
1.365
 30
0.0
 11
6.245221
 21
1.365
 31
0.0
  0
LINE
  5
185
  8
0
 62
     0
 10
6.128546
 20
1.358
 30
0.0
 11
6.242221
 21
1.358
 31
0.0
  0
LINE
  5
186
  8
0
 62
     0
 10
6.125546
 20
1.351
 30
0.0
 11
6.239221
 21
1.351
 31
0.0
  0
LINE
  5
187
  8
0
 62
     0
 10
6.122546
 20
1.344
 30
0.0
 11
6.236221
 21
1.344
 31
0.0
  0
LINE
  5
188
  8
0
 62
     0
 10
6.119546
 20
1.337
 30
0.0
 11
6.233221
 21
1.337
 31
0.0
  0
LINE
  5
189
  8
0
 62
     0
 10
6.116546
 20
1.33
 30
0.0
 11
6.230221
 21
1.33
 31
0.0
  0
LINE
  5
18A
  8
0
 62
     0
 10
6.113546
 20
1.323
 30
0.0
 11
6.227221
 21
1.323
 31
0.0
  0
ENDBLK
  5
18C
  8
0
  0
BLOCK
  8
0
  2
TITLEC
 70
     2
 10
0.0
 20
0.0
 30
0.0
  3
TITLEC
  1

  0
LINE
  5
18E
  8
0
 10
0.0
 20
1.75
 30
0.0
 11
-8.75
 21
1.75
 31
0.0
  0
LINE
  5
18F
  8
0
 10
-8.75
 20
0.0
 30
0.0
 11
-8.75
 21
1.75
 31
0.0
  0
LINE
  5
190
  8
0
 10
-3.75
 20
0.0
 30
0.0
 11
-3.75
 21
1.75
 31
0.0
  0
LINE
  5
191
  8
0
 10
-4.75
 20
0.0
 30
0.0
 11
-4.75
 21
1.75
 31
0.0
  0
LINE
  5
192
  8
0
 10
0.0
 20
1.25
 30
0.0
 11
-3.75
 21
1.25
 31
0.0
  0
LINE
  5
193
  8
0
 10
0.0
 20
0.5
 30
0.0
 11
-3.75
 21
0.5
 31
0.0
  0
LINE
  5
194
  8
0
 10
-1.75
 20
0.25
 30
0.0
 11
-3.75
 21
0.25
 31
0.0
  0
LINE
  5
195
  8
0
 10
-2.75
 20
0.0
 30
0.0
 11
-2.75
 21
0.5
 31
0.0
  0
LINE
  5
196
  8
0
 10
-1.75
 20
0.0
 30
0.0
 11
-1.75
 21
0.5
 31
0.0
  0
LINE
  5
197
  8
0
 10
-8.75
 20
0.25
 30
0.0
 11
-4.75
 21
0.25
 31
0.0
  0
LINE
  5
198
  8
0
 10
-8.75
 20
0.5
 30
0.0
 11
-4.75
 21
0.5
 31
0.0
  0
LINE
  5
199
  8
0
 10
-8.75
 20
0.75
 30
0.0
 11
-4.75
 21
0.75
 31
0.0
  0
LINE
  5
19A
  8
0
 10
-8.75
 20
1.0
 30
0.0
 11
-4.75
 21
1.0
 31
0.0
  0
LINE
  5
19B
  8
0
 10
-8.75
 20
1.25
 30
0.0
 11
-4.75
 21
1.25
 31
0.0
  0
LINE
  5
19C
  8
0
 10
-8.75
 20
1.5
 30
0.0
 11
-4.75
 21
1.5
 31
0.0
  0
LINE
  5
19D
  8
0
 10
-8.5
 20
0.0
 30
0.0
 11
-8.5
 21
0.25
 31
0.0
  0
LINE
  5
19E
  8
0
 10
-5.25
 20
0.0
 30
0.0
 11
-5.25
 21
0.25
 31
0.0
  0
LINE
  5
19F
  8
0
 10
-6.0
 20
0.0
 30
0.0
 11
-6.0
 21
0.25
 31
0.0
  0
TEXT
  5
1A0
  8
0
 10
-2.0625
 20
1.5
 30
0.0
 40
0.125
  1
7878 N. 86th STREET
 41
0.8
  0
TEXT
  5
1A1
  8
0
 10
-2.0625
 20
1.3125
 30
0.0
 40
0.125
  1
MILWAUKEE, WI 53224
 41
0.8
  0
POLYLINE
  5
1A2
  8
0
 66
     1
 10
0.0
 20
0.0
 30
0.0
 70
     1
  0
VERTEX
  5
2EAD
  8
0
 10
-3.285415
 20
1.3195
 30
0.0
  0
VERTEX
  5
2EAE
  8
0
 10
-3.238681
 20
1.428547
 30
0.0
  0
VERTEX
  5
2EAF
  8
0
 10
-3.125006
 20
1.428547
 30
0.0
  0
VERTEX
  5
2EB0
  8
0
 10
-3.17174
 20
1.3195
 30
0.0
  0
SEQEND
  5
2EB1
  8
0
  0
POLYLINE
  5
1A3
  8
0
 66
     1
 10
0.0
 20
0.0
 30
0.0
 70
     1
  0
VERTEX
  5
2EB2
  8
0
 10
-3.250818
 20
1.6805
 30
0.0
  0
VERTEX
  5
2EB3
  8
0
 10
-2.896909
 20
1.6805
 30
0.0
  0
VERTEX
  5
2EB4
  8
0
 10
-2.943643
 20
1.571453
 30
0.0
  0
VERTEX
  5
2EB5
  8
0
 10
-3.297552
 20
1.571453
 30
0.0
  0
SEQEND
  5
2EB6
  8
0
  0
POLYLINE
  5
1A4
  8
0
 66
     1
 10
0.0
 20
0.0
 30
0.0
 70
     1
  0
VERTEX
  5
2EB7
  8
0
 10
-3.189991
 20
1.542156
 30
0.0
  0
VERTEX
  5
2EB8
  8
0
 10
-3.188457
 20
1.545734
 30
0.0
  0
VERTEX
  5
2EB9
  8
0
 10
-3.074783
 20
1.545734
 30
0.0
  0
VERTEX
  5
2EBA
  8
0
 10
-3.076316
 20
1.542156
 30
0.0
  0
SEQEND
  5
2EBB
  8
0
  0
POLYLINE
  5
1A5
  8
0
 66
     1
 10
0.0
 20
0.0
 30
0.0
 70
     1
  0
VERTEX
  5
2EBC
  8
0
 10
-3.202547
 20
1.512859
 30
0.0
  0
VERTEX
  5
2EBD
  8
0
 10
-3.201013
 20
1.516438
 30
0.0
  0
VERTEX
  5
2EBE
  8
0
 10
-3.087338
 20
1.516438
 30
0.0
  0
VERTEX
  5
2EBF
  8
0
 10
-3.088872
 20
1.512859
 30
0.0
  0
SEQEND
  5
2EC0
  8
0
  0
POLYLINE
  5
1A6
  8
0
 66
     1
 10
0.0
 20
0.0
 30
0.0
 70
     1
  0
VERTEX
  5
2EC1
  8
0
 10
-3.215102
 20
1.483563
 30
0.0
  0
VERTEX
  5
2EC2
  8
0
 10
-3.213569
 20
1.487141
 30
0.0
  0
VERTEX
  5
2EC3
  8
0
 10
-3.099894
 20
1.487141
 30
0.0
  0
VERTEX
  5
2EC4
  8
0
 10
-3.101428
 20
1.483563
 30
0.0
  0
SEQEND
  5
2EC5
  8
0
  0
POLYLINE
  5
1A7
  8
0
 66
     1
 10
0.0
 20
0.0
 30
0.0
 70
     1
  0
VERTEX
  5
2EC6
  8
0
 10
-3.227658
 20
1.454266
 30
0.0
  0
VERTEX
  5
2EC7
  8
0
 10
-3.226125
 20
1.457844
 30
0.0
  0
VERTEX
  5
2EC8
  8
0
 10
-3.11245
 20
1.457844
 30
0.0
  0
VERTEX
  5
2EC9
  8
0
 10
-3.113984
 20
1.454266
 30
0.0
  0
SEQEND
  5
2ECA
  8
0
  0
INSERT
  5
1A8
  8
0
  2
*X5
 10
-8.75
 20
0.0
 30
0.0
  0
POLYLINE
  5
1A9
  8
0
 66
     1
 10
0.0
 20
0.0
 30
0.0
 70
     1
  0
VERTEX
  5
2ECB
  8
0
 10
-2.762231
 20
1.6805
 30
0.0
  0
VERTEX
  5
2ECC
  8
0
 10
-2.527768
 20
1.6805
 30
0.0
  0
VERTEX
  5
2ECD
  8
0
 10
-2.574503
 20
1.571453
 30
0.0
  0
VERTEX
  5
2ECE
  8
0
 10
-2.913459
 20
1.571453
 30
0.0
 42
-0.054429
  0
VERTEX
  5
2ECF
  8
0
 10
-2.882411
 20
1.617787
 30
0.0
 42
-0.084542
  0
VERTEX
  5
2ED0
  8
0
 10
-2.832469
 20
1.660109
 30
0.0
 42
-0.106399
  0
VERTEX
  5
2ED1
  8
0
 10
-2.77324
 20
1.679889
 30
0.0
 42
-0.027585
  0
SEQEND
  5
2ED2
  8
0
  0
POLYLINE
  5
1AA
  8
0
 66
     1
 10
0.0
 20
0.0
 30
0.0
 70
     1
  0
VERTEX
  5
2ED3
  8
0
 10
-2.926512
 20
1.542156
 30
0.0
 42
-0.003726
  0
VERTEX
  5
2ED4
  8
0
 10
-2.925148
 20
1.545734
 30
0.0
  0
VERTEX
  5
2ED5
  8
0
 10
-2.798667
 20
1.545734
 30
0.0
 42
0.007822
  0
VERTEX
  5
2ED6
  8
0
 10
-2.80153
 20
1.542156
 30
0.0
  0
SEQEND
  5
2ED7
  8
0
  0
POLYLINE
  5
1AB
  8
0
 66
     1
 10
0.0
 20
0.0
 30
0.0
 70
     1
  0
VERTEX
  5
2ED8
  8
0
 10
-2.940789
 20
1.483563
 30
0.0
 42
-0.00463
  0
VERTEX
  5
2ED9
  8
0
 10
-2.940306
 20
1.487141
 30
0.0
  0
VERTEX
  5
2EDA
  8
0
 10
-2.828053
 20
1.487141
 30
0.0
 42
0.006268
  0
VERTEX
  5
2EDB
  8
0
 10
-2.828878
 20
1.483563
 30
0.0
  0
SEQEND
  5
2EDC
  8
0
  0
POLYLINE
  5
1AC
  8
0
 66
     1
 10
0.0
 20
0.0
 30
0.0
 70
     1
  0
VERTEX
  5
2EDD
  8
0
 10
-2.942242
 20
1.454266
 30
0.0
 42
-0.004589
  0
VERTEX
  5
2EDE
  8
0
 10
-2.942301
 20
1.457844
 30
0.0
  0
VERTEX
  5
2EDF
  8
0
 10
-2.831832
 20
1.457844
 30
0.0
 42
0.010595
  0
VERTEX
  5
2EE0
  8
0
 10
-2.831695
 20
1.454266
 30
0.0
  0
SEQEND
  5
2EE1
  8
0
  0
POLYLINE
  5
1AD
  8
0
 66
     1
 10
0.0
 20
0.0
 30
0.0
 70
     1
  0
VERTEX
  5
2EE2
  8
0
 10
-2.831225
 20
1.319503
 30
0.0
 42
-0.10157
  0
VERTEX
  5
2EE3
  8
0
 10
-2.870619
 20
1.327589
 30
0.0
 42
-0.129518
  0
VERTEX
  5
2EE4
  8
0
 10
-2.910794
 20
1.35893
 30
0.0
 42
-0.106399
  0
VERTEX
  5
2EE5
  8
0
 10
-2.937318
 20
1.415461
 30
0.0
 42
-0.017101
  0
VERTEX
  5
2EE6
  8
0
 10
-2.939869
 20
1.428547
 30
0.0
  0
VERTEX
  5
2EE7
  8
0
 10
-2.635748
 20
1.428547
 30
0.0
  0
VERTEX
  5
2EE8
  8
0
 10
-2.682482
 20
1.3195
 30
0.0
  0
SEQEND
  5
2EE9
  8
0
  0
ARC
  5
1AE
  8
0
 10
-2.685747
 20
1.452436
 30
0.0
 40
0.139477
 50
156.801409
 51
157.478869
  0
POLYLINE
  5
1AF
  8
0
 66
     1
 10
0.0
 20
0.0
 30
0.0
 70
     1
  0
VERTEX
  5
2EEA
  8
0
 10
-2.81918
 20
1.512859
 30
0.0
  0
VERTEX
  5
2EEB
  8
0
 10
-2.93548
 20
1.512859
 30
0.0
 42
-0.003588
  0
VERTEX
  5
2EEC
  8
0
 10
-2.934587
 20
1.516438
 30
0.0
  0
VERTEX
  5
2EED
  8
0
 10
-2.817501
 20
1.516438
 30
0.0
 42
0.006746
  0
SEQEND
  5
2EEE
  8
0
  0
INSERT
  5
1B0
  8
0
  2
*X6
 10
-8.75
 20
0.0
 30
0.0
  0
POLYLINE
  5
1B1
  8
0
 66
     1
 10
0.0
 20
0.0
 30
0.0
 70
     1
  0
VERTEX
  5
2EEF
  8
0
 10
-2.416299
 20
1.571453
 30
0.0
  0
VERTEX
  5
2EF0
  8
0
 10
-2.529974
 20
1.571453
 30
0.0
  0
VERTEX
  5
2EF1
  8
0
 10
-2.48324
 20
1.6805
 30
0.0
  0
VERTEX
  5
2EF2
  8
0
 10
-2.369565
 20
1.6805
 30
0.0
  0
SEQEND
  5
2EF3
  8
0
  0
POLYLINE
  5
1B2
  8
0
 66
     1
 10
0.0
 20
0.0
 30
0.0
 70
     1
  0
VERTEX
  5
2EF4
  8
0
 10
-2.54253
 20
1.542156
 30
0.0
  0
VERTEX
  5
2EF5
  8
0
 10
-2.540996
 20
1.545734
 30
0.0
  0
VERTEX
  5
2EF6
  8
0
 10
-2.427322
 20
1.545734
 30
0.0
  0
VERTEX
  5
2EF7
  8
0
 10
-2.428855
 20
1.542156
 30
0.0
  0
SEQEND
  5
2EF8
  8
0
  0
POLYLINE
  5
1B3
  8
0
 66
     1
 10
0.0
 20
0.0
 30
0.0
 70
     1
  0
VERTEX
  5
2EF9
  8
0
 10
-2.555086
 20
1.512859
 30
0.0
  0
VERTEX
  5
2EFA
  8
0
 10
-2.553552
 20
1.516438
 30
0.0
  0
VERTEX
  5
2EFB
  8
0
 10
-2.439878
 20
1.516438
 30
0.0
  0
VERTEX
  5
2EFC
  8
0
 10
-2.441411
 20
1.512859
 30
0.0
  0
SEQEND
  5
2EFD
  8
0
  0
POLYLINE
  5
1B4
  8
0
 66
     1
 10
0.0
 20
0.0
 30
0.0
 70
     1
  0
VERTEX
  5
2EFE
  8
0
 10
-2.567641
 20
1.483563
 30
0.0
  0
VERTEX
  5
2EFF
  8
0
 10
-2.566108
 20
1.487141
 30
0.0
  0
VERTEX
  5
2F00
  8
0
 10
-2.452433
 20
1.487141
 30
0.0
  0
VERTEX
  5
2F01
  8
0
 10
-2.453967
 20
1.483563
 30
0.0
  0
SEQEND
  5
2F02
  8
0
  0
POLYLINE
  5
1B5
  8
0
 66
     1
 10
0.0
 20
0.0
 30
0.0
 70
     1
  0
VERTEX
  5
2F03
  8
0
 10
-2.580197
 20
1.454266
 30
0.0
  0
VERTEX
  5
2F04
  8
0
 10
-2.578664
 20
1.457844
 30
0.0
  0
VERTEX
  5
2F05
  8
0
 10
-2.464989
 20
1.457844
 30
0.0
  0
VERTEX
  5
2F06
  8
0
 10
-2.466523
 20
1.454266
 30
0.0
  0
SEQEND
  5
2F07
  8
0
  0
POLYLINE
  5
1B6
  8
0
 66
     1
 10
0.0
 20
0.0
 30
0.0
 70
     1
  0
VERTEX
  5
2F08
  8
0
 10
-2.637954
 20
1.3195
 30
0.0
  0
VERTEX
  5
2F09
  8
0
 10
-2.59122
 20
1.428547
 30
0.0
  0
VERTEX
  5
2F0A
  8
0
 10
-2.477545
 20
1.428547
 30
0.0
  0
VERTEX
  5
2F0B
  8
0
 10
-2.524279
 20
1.3195
 30
0.0
  0
SEQEND
  5
2F0C
  8
0
  0
INSERT
  5
1B7
  8
0
  2
*X7
 10
-8.75
 20
0.0
 30
0.0
  0
TEXT
  5
1B8
  8
0
 10
-3.71875
 20
0.40625
 30
0.0
 40
0.0625
  1
DRN. BY
 41
0.8
  0
TEXT
  5
1B9
  8
0
 10
-2.71875
 20
0.40625
 30
0.0
 40
0.0625
  1
DATE
 41
0.8
  0
TEXT
  5
1BA
  8
0
 10
-1.71875
 20
0.40625
 30
0.0
 40
0.0625
  1
DWG. NO.
 41
0.8
  0
TEXT
  5
1BB
  8
0
 10
-2.71875
 20
0.15625
 30
0.0
 40
0.0625
  1
APRVD.
 41
0.8
  0
TEXT
  5
1BC
  8
0
 10
-3.71875
 20
0.15625
 30
0.0
 40
0.0625
  1
SCALE
 41
0.8
  0
TEXT
  5
1BD
  8
0
 10
-4.59375
 20
1.625
 30
0.0
 40
0.09
  1
TOLERANCES
 41
0.8
  0
TEXT
  5
1BE
  8
0
 10
-4.71875
 20
1.375
 30
0.0
 40
0.0625
  1
DECIMAL
 41
0.8
  0
TEXT
  5
1BF
  8
0
 10
-4.71875
 20
0.65625
 30
0.0
 40
0.0625
  1
FRACTIONAL
 41
0.8
  0
TEXT
  5
1C0
  8
0
 10
-4.71875
 20
0.28125
 30
0.0
 40
0.0625
  1
ANGULAR
 41
0.8
  0
LINE
  5
1C1
  8
0
 10
-4.75
 20
1.46875
 30
0.0
 11
-3.75
 21
1.46875
 31
0.0
  0
TEXT
  5
1C2
  8
0
 10
-4.625
 20
1.5
 30
0.0
 40
0.0625
  1
(EXCEPT AS NOTED)
 41
0.8
  0
LINE
  5
1C3
  8
0
 10
-4.75
 20
0.375
 30
0.0
 11
-3.75
 21
0.375
 31
0.0
  0
LINE
  5
1C4
  8
0
 10
-4.75
 20
0.75
 30
0.0
 11
-3.75
 21
0.75
 31
0.0
  0
TEXT
  5
1C5
  8
0
 10
-4.6875
 20
1.09375
 30
0.0
 40
0.125
  1
.XX %%p
 41
0.8
  0
TEXT
  5
1C6
  8
0
 10
-4.6875
 20
0.84375
 30
0.0
 40
0.125
  1
.XXX%%p
 41
0.8
  0
TEXT
  5
1C7
  8
0
 10
-4.625
 20
0.46875
 30
0.0
 40
0.125
  1
%%p
 41
0.8
  0
TEXT
  5
1C8
  8
0
 10
-4.625
 20
0.09375
 30
0.0
 40
0.125
  1
%%p
 41
0.8
  0
TEXT
  5
1C9
  8
0
 10
-5.09375
 20
0.0625
 30
0.0
 40
0.125
  1
BY
 41
0.8
  0
TEXT
  5
1CA
  8
0
 10
-8.71875
 20
0.0625
 30
0.0
 40
0.125
  1
NO
 41
0.8
  0
TEXT
  5
1CB
  8
0
 10
-7.53125
 20
0.0625
 30
0.0
 40
0.125
  1
REVISION
 41
0.8
  0
TEXT
  5
1CC
  8
0
 10
-5.8125
 20
0.0625
 30
0.0
 40
0.125
  1
DATE
 41
0.8
  0
TEXT
  5
1CD
  8
0
 10
-0.9375
 20
0.03125
 30
0.0
 40
0.09
  1
SHT.    OF
 41
0.8
  0
ATTDEF
  5
1CE
  8
0
 10
-1.28125
 20
0.25
 30
0.0
 40
0.1875
  1

 41
0.8
  3
DRAWING NUMBER
  2
DWGNO
 70
     0
  0
ATTDEF
  5
1CF
  8
0
 10
-3.34375
 20
0.28125
 30
0.0
 40
0.125
  1

 41
0.8
  3
DRAWN BY
  2
DRNBY
 70
     0
  0
ATTDEF
  5
1D0
  8
0
 10
-2.5
 20
0.28125
 30
0.0
 40
0.125
  1

 41
1.631757
 72
     5
 11
-1.78125
 21
0.28125
 31
0.0
  3
DRAWING DATE
  2
DATE
 70
     0
  0
ATTDEF
  5
1D1
  8
0
 10
-3.40625
 20
0.03125
 30
0.0
 40
0.125
  1

 41
0.8
  3
SCALE
  2
SCALE
 70
     0
  0
ATTDEF
  5
1D2
  8
0
 10
-2.40625
 20
0.03125
 30
0.0
 40
0.125
  1

 41
0.8
  3
APPROVED BY
  2
APRVD
 70
     0
  0
ATTDEF
  5
1D3
  8
0
 10
-0.65625
 20
0.03125
 30
0.0
 40
0.125
  1

 41
0.8
  3
SHEET
  2
SHT
 70
     0
  0
ATTDEF
  5
1D4
  8
0
 10
-0.28125
 20
0.03125
 30
0.0
 40
0.125
  1

 41
0.8
  3
OF SHEET
  2
OFSHT
 70
     0
  0
ATTDEF
  5
1D5
  8
0
 10
-3.59375
 20
0.875
 30
0.0
 40
0.1875
  1

 41
0.8
  3
DESCRIPTION (LINE 1 OF 2)
  2
DESC1
 70
     0
  0
ATTDEF
  5
1D6
  8
0
 10
-3.59375
 20
0.59375
 30
0.0
 40
0.1875
  1

 41
0.8
  3
DESCRIPTION (LINE 2 OF 2)
  2
DESC2
 70
     0
  0
ATTDEF
  5
1D7
  8
0
 10
-4.21875
 20
1.09375
 30
0.0
 40
0.125
  1
.01
 41
0.8
  3
TOLERANCE .XX
  2
TOLXX
 70
     0
  0
ATTDEF
  5
1D8
  8
0
 10
-4.21875
 20
0.84375
 30
0.0
 40
0.125
  1
.005
 41
0.8
  3
TOLERANCE .XXX
  2
TOLXXX
 70
     0
  0
ATTDEF
  5
1D9
  8
0
 10
-4.46875
 20
0.46875
 30
0.0
 40
0.125
  1
1/32
 41
0.8
  3
TOLERANCE - FRACTIONAL
  2
TOLFRAC
 70
     0
  0
ATTDEF
  5
1DA
  8
0
 10
-4.46875
 20
0.09375
 30
0.0
 40
0.125
  1
1/2%%d
 41
0.8
  3
TOLERANCE - ANGULAR
  2
TOLANG
 70
     0
  0
ATTDEF
  5
1DB
  8
0
 10
-1.59375
 20
0.09375
 30
0.0
 40
0.25
  1

 41
0.8
  3

  2
DWG.SIZE
 70
     0
  0
ENDBLK
  5
1DD
  8
0
  0
BLOCK
  8
0
  2
REVISE12
 70
     2
 10
0.0
 20
0.0
 30
0.0
  3
REVISE12
  1

  0
ATTDEF
  5
1DF
  8
0
 10
0.03125
 20
0.0625
 30
0.0
 40
0.125
  1

 41
0.9
 72
     5
 11
0.21875
 21
0.0625
 31
0.0
  3
REVISION NO.
  2
NO
 70
     8
  0
ATTDEF
  5
1E0
  8
0
 10
0.3125
 20
0.0625
 30
0.0
 40
0.125
  1

  3
REVISION
  2
REV
 70
     8
  0
ATTDEF
  5
1E1
  8
0
 10
2.8125
 20
0.0625
 30
0.0
 40
0.125
  1

 41
1.125
 72
     5
 11
3.46875
 21
0.0625
 31
0.0
  3
REVISION DATE
  2
RDATE
 70
     8
  0
ATTDEF
  5
1E2
  8
0
 10
3.53125
 20
0.0625
 30
0.0
 40
0.125
  1

  3
REVISION BY
  2
BY
 70
     8
  0
LINE
  5
1E3
  8
0
 10
0.0
 20
0.0
 30
0.0
 11
0.0
 21
0.25
 31
0.0
  0
LINE
  5
1E4
  8
0
 10
0.25
 20
0.25
 30
0.0
 11
0.25
 21
0.0
 31
0.0
  0
LINE
  5
1E5
  8
0
 10
2.75
 20
0.25
 30
0.0
 11
2.75
 21
0.0
 31
0.0
  0
LINE
  5
1E6
  8
0
 10
3.5
 20
0.25
 30
0.0
 11
3.5
 21
0.0
 31
0.0
  0
ENDBLK
  5
1E8
  8
0
  0
BLOCK
  8
0
  2
REV
 70
     2
 10
0.0
 20
0.0
 30
0.0
  3
REV
  1

  0
POLYLINE
  5
10E1
  8
0
 66
     1
 10
0.0
 20
0.0
 30
0.0
 70
     1
  0
VERTEX
  5
2F0D
  8
0
 10
0.313294
 20
0.968263
 30
0.0
  0
VERTEX
  5
2F0E
  8
0
 10
-0.336225
 20
-0.156737
 30
0.0
  0
VERTEX
  5
2F0F
  8
0
 10
0.962813
 20
-0.156737
 30
0.0
  0
SEQEND
  5
2F10
  8
0
  0
ATTDEF
  5
10E2
  8
0
 10
0.314709
 20
-0.040215
 30
0.0
 40
0.4725
  1
1
 72
     1
 11
0.393459
 21
0.196035
 31
0.0
  3
REVISION
  2
REV
 70
     0
 74
     2
  0
ENDBLK
  5
10E4
  8
0
  0
BLOCK
  8
0
  2
BMATRX
 70
     0
 10
0.0
 20
0.0
 30
0.0
  3
BMATRX
  1

  0
POLYLINE
  5
19EF
  8
0
 66
     1
 10
0.0
 20
0.0
 30
0.0
 70
     1
  0
VERTEX
  5
3370
  8
0
 10
0.5
 20
0.5
 30
0.0
  0
VERTEX
  5
3371
  8
0
 10
16.5
 20
0.5
 30
0.0
  0
VERTEX
  5
3372
  8
0
 10
16.5
 20
10.5
 30
0.0
  0
VERTEX
  5
3373
  8
0
 10
0.5
 20
10.5
 30
0.0
  0
SEQEND
  5
3374
  8
0
  0
ENDBLK
  5
19F1
  8
0
  0
BLOCK
  8
0
  2
SCLBLK
 70
     0
 10
0.0
 20
0.0
 30
0.0
  3
SCLBLK
  1

  0
TEXT
  5
19F3
  8
CURRENT_SCALE_SETTING
 10
0.0
 20
0.0
 30
0.0
 40
0.004
  1
4.00
 41
0.8
  0
ENDBLK
  5
19F5
  8
0
  0
BLOCK
  8
0
  2
PAPERX
 70
     0
 10
0.0
 20
0.0
 30
0.0
  3
PAPERX
  1

  0
TEXT
  5
19F7
  8
CURRENT_SCALE_SETTING
 10
0.0
 20
0.0
 30
0.0
 40
0.004
  1
17.00
 41
0.8
  0
ENDBLK
  5
19F9
  8
0
  0
BLOCK
  8
0
  2
PAPERY
 70
     0
 10
0.0
 20
0.0
 30
0.0
  3
PAPERY
  1

  0
TEXT
  5
19FB
  8
CURRENT_SCALE_SETTING
 10
0.0
 20
0.0
 30
0.0
 40
0.004
  1
11.00
 41
0.8
  0
ENDBLK
  5
19FD
  8
0
  0
BLOCK
  8
0
  2
TITLE
 70
     2
 10
0.0
 20
0.0
 30
0.0
  3
TITLE
  1

  0
LINE
  5
19FF
  8
0
 10
0.0
 20
1.75
 30
0.0
 11
-8.75
 21
1.75
 31
0.0
  0
LINE
  5
1A00
  8
0
 10
-8.75
 20
0.0
 30
0.0
 11
-8.75
 21
1.75
 31
0.0
  0
LINE
  5
1A01
  8
0
 10
-3.75
 20
0.0
 30
0.0
 11
-3.75
 21
1.75
 31
0.0
  0
LINE
  5
1A02
  8
0
 10
-4.75
 20
0.0
 30
0.0
 11
-4.75
 21
1.75
 31
0.0
  0
LINE
  5
1A03
  8
0
 10
0.0
 20
1.25
 30
0.0
 11
-3.75
 21
1.25
 31
0.0
  0
LINE
  5
1A04
  8
0
 10
0.0
 20
0.5
 30
0.0
 11
-3.75
 21
0.5
 31
0.0
  0
LINE
  5
1A05
  8
0
 10
-1.75
 20
0.25
 30
0.0
 11
-3.75
 21
0.25
 31
0.0
  0
LINE
  5
1A06
  8
0
 10
-2.75
 20
0.0
 30
0.0
 11
-2.75
 21
0.5
 31
0.0
  0
LINE
  5
1A07
  8
0
 10
-1.75
 20
0.0
 30
0.0
 11
-1.75
 21
0.5
 31
0.0
  0
LINE
  5
1A08
  8
0
 10
-8.75
 20
0.25
 30
0.0
 11
-4.75
 21
0.25
 31
0.0
  0
LINE
  5
1A09
  8
0
 10
-8.75
 20
0.5
 30
0.0
 11
-4.75
 21
0.5
 31
0.0
  0
LINE
  5
1A0A
  8
0
 10
-8.75
 20
0.75
 30
0.0
 11
-4.75
 21
0.75
 31
0.0
  0
LINE
  5
1A0B
  8
0
 10
-8.75
 20
1.0
 30
0.0
 11
-4.75
 21
1.0
 31
0.0
  0
LINE
  5
1A0C
  8
0
 10
-8.75
 20
1.25
 30
0.0
 11
-4.75
 21
1.25
 31
0.0
  0
LINE
  5
1A0D
  8
0
 10
-8.75
 20
1.5
 30
0.0
 11
-4.75
 21
1.5
 31
0.0
  0
LINE
  5
1A0E
  8
0
 10
-8.5
 20
0.0
 30
0.0
 11
-8.5
 21
0.25
 31
0.0
  0
LINE
  5
1A0F
  8
0
 10
-5.25
 20
0.0
 30
0.0
 11
-5.25
 21
0.25
 31
0.0
  0
LINE
  5
1A10
  8
0
 10
-6.0
 20
0.0
 30
0.0
 11
-6.0
 21
0.25
 31
0.0
  0
TEXT
  5
1A11
  8
0
 10
-2.0625
 20
1.5
 30
0.0
 40
0.125
  1
7878 N. 86th STREET
 41
0.8
  0
TEXT
  5
1A12
  8
0
 10
-2.0625
 20
1.3125
 30
0.0
 40
0.125
  1
MILWAUKEE, WI 53224
 41
0.8
  0
POLYLINE
  5
1A13
  8
0
 66
     1
 10
0.0
 20
0.0
 30
0.0
 70
     1
  0
VERTEX
  5
3375
  8
0
 10
-3.285415
 20
1.3195
 30
0.0
  0
VERTEX
  5
3376
  8
0
 10
-3.238681
 20
1.428547
 30
0.0
  0
VERTEX
  5
3377
  8
0
 10
-3.125006
 20
1.428547
 30
0.0
  0
VERTEX
  5
3378
  8
0
 10
-3.17174
 20
1.3195
 30
0.0
  0
SEQEND
  5
3379
  8
0
  0
POLYLINE
  5
1A14
  8
0
 66
     1
 10
0.0
 20
0.0
 30
0.0
 70
     1
  0
VERTEX
  5
337A
  8
0
 10
-3.250818
 20
1.6805
 30
0.0
  0
VERTEX
  5
337B
  8
0
 10
-2.896909
 20
1.6805
 30
0.0
  0
VERTEX
  5
337C
  8
0
 10
-2.943643
 20
1.571453
 30
0.0
  0
VERTEX
  5
337D
  8
0
 10
-3.297552
 20
1.571453
 30
0.0
  0
SEQEND
  5
337E
  8
0
  0
POLYLINE
  5
1A15
  8
0
 66
     1
 10
0.0
 20
0.0
 30
0.0
 70
     1
  0
VERTEX
  5
337F
  8
0
 10
-3.189991
 20
1.542156
 30
0.0
  0
VERTEX
  5
3380
  8
0
 10
-3.188457
 20
1.545734
 30
0.0
  0
VERTEX
  5
3381
  8
0
 10
-3.074783
 20
1.545734
 30
0.0
  0
VERTEX
  5
3382
  8
0
 10
-3.076316
 20
1.542156
 30
0.0
  0
SEQEND
  5
3383
  8
0
  0
POLYLINE
  5
1A16
  8
0
 66
     1
 10
0.0
 20
0.0
 30
0.0
 70
     1
  0
VERTEX
  5
3384
  8
0
 10
-3.202547
 20
1.512859
 30
0.0
  0
VERTEX
  5
3385
  8
0
 10
-3.201013
 20
1.516438
 30
0.0
  0
VERTEX
  5
3386
  8
0
 10
-3.087338
 20
1.516438
 30
0.0
  0
VERTEX
  5
3387
  8
0
 10
-3.088872
 20
1.512859
 30
0.0
  0
SEQEND
  5
3388
  8
0
  0
POLYLINE
  5
1A17
  8
0
 66
     1
 10
0.0
 20
0.0
 30
0.0
 70
     1
  0
VERTEX
  5
3389
  8
0
 10
-3.215102
 20
1.483563
 30
0.0
  0
VERTEX
  5
338A
  8
0
 10
-3.213569
 20
1.487141
 30
0.0
  0
VERTEX
  5
338B
  8
0
 10
-3.099894
 20
1.487141
 30
0.0
  0
VERTEX
  5
338C
  8
0
 10
-3.101428
 20
1.483563
 30
0.0
  0
SEQEND
  5
338D
  8
0
  0
POLYLINE
  5
1A18
  8
0
 66
     1
 10
0.0
 20
0.0
 30
0.0
 70
     1
  0
VERTEX
  5
338E
  8
0
 10
-3.227658
 20
1.454266
 30
0.0
  0
VERTEX
  5
338F
  8
0
 10
-3.226125
 20
1.457844
 30
0.0
  0
VERTEX
  5
3390
  8
0
 10
-3.11245
 20
1.457844
 30
0.0
  0
VERTEX
  5
3391
  8
0
 10
-3.113984
 20
1.454266
 30
0.0
  0
SEQEND
  5
3392
  8
0
  0
INSERT
  5
1A19
  8
0
  2
*X16
 10
-8.75
 20
0.0
 30
0.0
  0
POLYLINE
  5
1A1A
  8
0
 66
     1
 10
0.0
 20
0.0
 30
0.0
 70
     1
  0
VERTEX
  5
3393
  8
0
 10
-2.762231
 20
1.6805
 30
0.0
  0
VERTEX
  5
3394
  8
0
 10
-2.527768
 20
1.6805
 30
0.0
  0
VERTEX
  5
3395
  8
0
 10
-2.574503
 20
1.571453
 30
0.0
  0
VERTEX
  5
3396
  8
0
 10
-2.913459
 20
1.571453
 30
0.0
 42
-0.054429
  0
VERTEX
  5
3397
  8
0
 10
-2.882411
 20
1.617787
 30
0.0
 42
-0.084542
  0
VERTEX
  5
3398
  8
0
 10
-2.832469
 20
1.660109
 30
0.0
 42
-0.106399
  0
VERTEX
  5
3399
  8
0
 10
-2.77324
 20
1.679889
 30
0.0
 42
-0.027585
  0
SEQEND
  5
339A
  8
0
  0
POLYLINE
  5
1A1B
  8
0
 66
     1
 10
0.0
 20
0.0
 30
0.0
 70
     1
  0
VERTEX
  5
339B
  8
0
 10
-2.926512
 20
1.542156
 30
0.0
 42
-0.003726
  0
VERTEX
  5
339C
  8
0
 10
-2.925148
 20
1.545734
 30
0.0
  0
VERTEX
  5
339D
  8
0
 10
-2.798667
 20
1.545734
 30
0.0
 42
0.007822
  0
VERTEX
  5
339E
  8
0
 10
-2.80153
 20
1.542156
 30
0.0
  0
SEQEND
  5
339F
  8
0
  0
POLYLINE
  5
1A1C
  8
0
 66
     1
 10
0.0
 20
0.0
 30
0.0
 70
     1
  0
VERTEX
  5
33A0
  8
0
 10
-2.940789
 20
1.483563
 30
0.0
 42
-0.00463
  0
VERTEX
  5
33A1
  8
0
 10
-2.940306
 20
1.487141
 30
0.0
  0
VERTEX
  5
33A2
  8
0
 10
-2.828053
 20
1.487141
 30
0.0
 42
0.006268
  0
VERTEX
  5
33A3
  8
0
 10
-2.828878
 20
1.483563
 30
0.0
  0
SEQEND
  5
33A4
  8
0
  0
POLYLINE
  5
1A1D
  8
0
 66
     1
 10
0.0
 20
0.0
 30
0.0
 70
     1
  0
VERTEX
  5
33A5
  8
0
 10
-2.942242
 20
1.454266
 30
0.0
 42
-0.004589
  0
VERTEX
  5
33A6
  8
0
 10
-2.942301
 20
1.457844
 30
0.0
  0
VERTEX
  5
33A7
  8
0
 10
-2.831832
 20
1.457844
 30
0.0
 42
0.010595
  0
VERTEX
  5
33A8
  8
0
 10
-2.831695
 20
1.454266
 30
0.0
  0
SEQEND
  5
33A9
  8
0
  0
POLYLINE
  5
1A1E
  8
0
 66
     1
 10
0.0
 20
0.0
 30
0.0
 70
     1
  0
VERTEX
  5
33AA
  8
0
 10
-2.831225
 20
1.319503
 30
0.0
 42
-0.10157
  0
VERTEX
  5
33AB
  8
0
 10
-2.870619
 20
1.327589
 30
0.0
 42
-0.129518
  0
VERTEX
  5
33AC
  8
0
 10
-2.910794
 20
1.35893
 30
0.0
 42
-0.106399
  0
VERTEX
  5
33AD
  8
0
 10
-2.937318
 20
1.415461
 30
0.0
 42
-0.017101
  0
VERTEX
  5
33AE
  8
0
 10
-2.939869
 20
1.428547
 30
0.0
  0
VERTEX
  5
33AF
  8
0
 10
-2.635748
 20
1.428547
 30
0.0
  0
VERTEX
  5
33B0
  8
0
 10
-2.682482
 20
1.3195
 30
0.0
  0
SEQEND
  5
33B1
  8
0
  0
ARC
  5
1A1F
  8
0
 10
-2.685747
 20
1.452436
 30
0.0
 40
0.139477
 50
156.801409
 51
157.478869
  0
POLYLINE
  5
1A20
  8
0
 66
     1
 10
0.0
 20
0.0
 30
0.0
 70
     1
  0
VERTEX
  5
33B2
  8
0
 10
-2.81918
 20
1.512859
 30
0.0
  0
VERTEX
  5
33B3
  8
0
 10
-2.93548
 20
1.512859
 30
0.0
 42
-0.003588
  0
VERTEX
  5
33B4
  8
0
 10
-2.934587
 20
1.516438
 30
0.0
  0
VERTEX
  5
33B5
  8
0
 10
-2.817501
 20
1.516438
 30
0.0
 42
0.006746
  0
SEQEND
  5
33B6
  8
0
  0
INSERT
  5
1A21
  8
0
  2
*X17
 10
-8.75
 20
0.0
 30
0.0
  0
POLYLINE
  5
1A22
  8
0
 66
     1
 10
0.0
 20
0.0
 30
0.0
 70
     1
  0
VERTEX
  5
33B7
  8
0
 10
-2.416299
 20
1.571453
 30
0.0
  0
VERTEX
  5
33B8
  8
0
 10
-2.529974
 20
1.571453
 30
0.0
  0
VERTEX
  5
33B9
  8
0
 10
-2.48324
 20
1.6805
 30
0.0
  0
VERTEX
  5
33BA
  8
0
 10
-2.369565
 20
1.6805
 30
0.0
  0
SEQEND
  5
33BB
  8
0
  0
POLYLINE
  5
1A23
  8
0
 66
     1
 10
0.0
 20
0.0
 30
0.0
 70
     1
  0
VERTEX
  5
33BC
  8
0
 10
-2.54253
 20
1.542156
 30
0.0
  0
VERTEX
  5
33BD
  8
0
 10
-2.540996
 20
1.545734
 30
0.0
  0
VERTEX
  5
33BE
  8
0
 10
-2.427322
 20
1.545734
 30
0.0
  0
VERTEX
  5
33BF
  8
0
 10
-2.428855
 20
1.542156
 30
0.0
  0
SEQEND
  5
33C0
  8
0
  0
POLYLINE
  5
1A24
  8
0
 66
     1
 10
0.0
 20
0.0
 30
0.0
 70
     1
  0
VERTEX
  5
33C1
  8
0
 10
-2.555086
 20
1.512859
 30
0.0
  0
VERTEX
  5
33C2
  8
0
 10
-2.553552
 20
1.516438
 30
0.0
  0
VERTEX
  5
33C3
  8
0
 10
-2.439878
 20
1.516438
 30
0.0
  0
VERTEX
  5
33C4
  8
0
 10
-2.441411
 20
1.512859
 30
0.0
  0
SEQEND
  5
33C5
  8
0
  0
POLYLINE
  5
1A25
  8
0
 66
     1
 10
0.0
 20
0.0
 30
0.0
 70
     1
  0
VERTEX
  5
33C6
  8
0
 10
-2.567641
 20
1.483563
 30
0.0
  0
VERTEX
  5
33C7
  8
0
 10
-2.566108
 20
1.487141
 30
0.0
  0
VERTEX
  5
33C8
  8
0
 10
-2.452433
 20
1.487141
 30
0.0
  0
VERTEX
  5
33C9
  8
0
 10
-2.453967
 20
1.483563
 30
0.0
  0
SEQEND
  5
33CA
  8
0
  0
POLYLINE
  5
1A26
  8
0
 66
     1
 10
0.0
 20
0.0
 30
0.0
 70
     1
  0
VERTEX
  5
33CB
  8
0
 10
-2.580197
 20
1.454266
 30
0.0
  0
VERTEX
  5
33CC
  8
0
 10
-2.578664
 20
1.457844
 30
0.0
  0
VERTEX
  5
33CD
  8
0
 10
-2.464989
 20
1.457844
 30
0.0
  0
VERTEX
  5
33CE
  8
0
 10
-2.466523
 20
1.454266
 30
0.0
  0
SEQEND
  5
33CF
  8
0
  0
POLYLINE
  5
1A27
  8
0
 66
     1
 10
0.0
 20
0.0
 30
0.0
 70
     1
  0
VERTEX
  5
33D0
  8
0
 10
-2.637954
 20
1.3195
 30
0.0
  0
VERTEX
  5
33D1
  8
0
 10
-2.59122
 20
1.428547
 30
0.0
  0
VERTEX
  5
33D2
  8
0
 10
-2.477545
 20
1.428547
 30
0.0
  0
VERTEX
  5
33D3
  8
0
 10
-2.524279
 20
1.3195
 30
0.0
  0
SEQEND
  5
33D4
  8
0
  0
INSERT
  5
1A28
  8
0
  2
*X18
 10
-8.75
 20
0.0
 30
0.0
  0
TEXT
  5
1A29
  8
0
 10
-3.71875
 20
0.40625
 30
0.0
 40
0.0625
  1
DRN. BY
 41
0.8
  0
TEXT
  5
1A2A
  8
0
 10
-2.71875
 20
0.40625
 30
0.0
 40
0.0625
  1
DATE
 41
0.8
  0
TEXT
  5
1A2B
  8
0
 10
-1.71875
 20
0.40625
 30
0.0
 40
0.0625
  1
DWG. NO.
 41
0.8
  0
TEXT
  5
1A2C
  8
0
 10
-2.71875
 20
0.15625
 30
0.0
 40
0.0625
  1
APRVD.
 41
0.8
  0
TEXT
  5
1A2D
  8
0
 10
-3.71875
 20
0.15625
 30
0.0
 40
0.0625
  1
SCALE
 41
0.8
  0
TEXT
  5
1A2E
  8
0
 10
-4.59375
 20
1.625
 30
0.0
 40
0.09
  1
TOLERANCES
 41
0.8
  0
TEXT
  5
1A2F
  8
0
 10
-4.71875
 20
1.375
 30
0.0
 40
0.0625
  1
DECIMAL
 41
0.8
  0
TEXT
  5
1A30
  8
0
 10
-4.71875
 20
0.65625
 30
0.0
 40
0.0625
  1
FRACTIONAL
 41
0.8
  0
TEXT
  5
1A31
  8
0
 10
-4.71875
 20
0.28125
 30
0.0
 40
0.0625
  1
ANGULAR
 41
0.8
  0
LINE
  5
1A32
  8
0
 10
-4.75
 20
1.46875
 30
0.0
 11
-3.75
 21
1.46875
 31
0.0
  0
TEXT
  5
1A33
  8
0
 10
-4.625
 20
1.5
 30
0.0
 40
0.0625
  1
(EXCEPT AS NOTED)
 41
0.8
  0
LINE
  5
1A34
  8
0
 10
-4.75
 20
0.375
 30
0.0
 11
-3.75
 21
0.375
 31
0.0
  0
LINE
  5
1A35
  8
0
 10
-4.75
 20
0.75
 30
0.0
 11
-3.75
 21
0.75
 31
0.0
  0
TEXT
  5
1A36
  8
0
 10
-4.6875
 20
1.09375
 30
0.0
 40
0.125
  1
.XX %%p
 41
0.8
  0
TEXT
  5
1A37
  8
0
 10
-4.6875
 20
0.84375
 30
0.0
 40
0.125
  1
.XXX%%p
 41
0.8
  0
TEXT
  5
1A38
  8
0
 10
-4.625
 20
0.46875
 30
0.0
 40
0.125
  1
%%p
 41
0.8
  0
TEXT
  5
1A39
  8
0
 10
-4.625
 20
0.09375
 30
0.0
 40
0.125
  1
%%p
 41
0.8
  0
TEXT
  5
1A3A
  8
0
 10
-5.09375
 20
0.0625
 30
0.0
 40
0.125
  1
BY
 41
0.8
  0
TEXT
  5
1A3B
  8
0
 10
-8.71875
 20
0.0625
 30
0.0
 40
0.125
  1
NO
 41
0.8
  0
TEXT
  5
1A3C
  8
0
 10
-7.53125
 20
0.0625
 30
0.0
 40
0.125
  1
REVISION
 41
0.8
  0
TEXT
  5
1A3D
  8
0
 10
-5.8125
 20
0.0625
 30
0.0
 40
0.125
  1
DATE
 41
0.8
  0
TEXT
  5
1A3E
  8
0
 10
-0.9375
 20
0.03125
 30
0.0
 40
0.09
  1
SHT.    OF
 41
0.8
  0
ATTDEF
  5
1A3F
  8
0
 10
-1.28125
 20
0.25
 30
0.0
 40
0.1875
  1

 41
0.8
  3
DRAWING NUMBER
  2
DWGNO
 70
     0
  0
ATTDEF
  5
1A40
  8
0
 10
-3.34375
 20
0.28125
 30
0.0
 40
0.125
  1

 41
0.8
  3
DRAWN BY
  2
DRNBY
 70
     0
  0
ATTDEF
  5
1A41
  8
0
 10
-2.5
 20
0.28125
 30
0.0
 40
0.125
  1

 41
1.631757
 72
     5
 11
-1.78125
 21
0.28125
 31
0.0
  3
DRAWING DATE
  2
DATE
 70
     0
  0
ATTDEF
  5
1A42
  8
0
 10
-3.40625
 20
0.03125
 30
0.0
 40
0.125
  1

 41
0.8
  3
SCALE
  2
SCALE
 70
     0
  0
ATTDEF
  5
1A43
  8
0
 10
-2.40625
 20
0.03125
 30
0.0
 40
0.125
  1

 41
0.8
  3
APPROVED BY
  2
APRVD
 70
     0
  0
ATTDEF
  5
1A44
  8
0
 10
-0.65625
 20
0.03125
 30
0.0
 40
0.125
  1

 41
0.8
  3
SHEET
  2
SHT
 70
     0
  0
ATTDEF
  5
1A45
  8
0
 10
-0.28125
 20
0.03125
 30
0.0
 40
0.125
  1

 41
0.8
  3
OF SHEET
  2
OFSHT
 70
     0
  0
ATTDEF
  5
1A46
  8
0
 10
-3.59375
 20
0.875
 30
0.0
 40
0.1875
  1

 41
0.8
  3
DESCRIPTION (LINE 1 OF 2)
  2
DESC1
 70
     0
  0
ATTDEF
  5
1A47
  8
0
 10
-3.59375
 20
0.59375
 30
0.0
 40
0.1875
  1

 41
0.8
  3
DESCRIPTION (LINE 2 OF 2)
  2
DESC2
 70
     0
  0
ATTDEF
  5
1A48
  8
0
 10
-4.21875
 20
1.09375
 30
0.0
 40
0.125
  1
.01
 41
0.8
  3
TOLERANCE .XX
  2
TOLXX
 70
     0
  0
ATTDEF
  5
1A49
  8
0
 10
-4.21875
 20
0.84375
 30
0.0
 40
0.125
  1
.005
 41
0.8
  3
TOLERANCE .XXX
  2
TOLXXX
 70
     0
  0
ATTDEF
  5
1A4A
  8
0
 10
-4.46875
 20
0.46875
 30
0.0
 40
0.125
  1
1/32
 41
0.8
  3
TOLERANCE - FRACTIONAL
  2
TOLFRAC
 70
     0
  0
ATTDEF
  5
1A4B
  8
0
 10
-4.46875
 20
0.09375
 30
0.0
 40
0.125
  1
1/2%%d
 41
0.8
  3
TOLERANCE - ANGULAR
  2
TOLANG
 70
     0
  0
ATTDEF
  5
1A4C
  8
0
 10
-1.59375
 20
0.09375
 30
0.0
 40
0.25
  1

 41
0.8
  3

  2
DWG.SIZE
 70
     0
  0
ENDBLK
  5
1A4E
  8
0
  0
BLOCK
  8
0
  2
*X16
 70
     1
 10
0.0
 20
0.0
 30
0.0
  3
*X16
  1

  0
LINE
  5
1A50
  8
0
 62
     0
 10
5.453968
 20
1.575
 30
0.0
 11
5.807877
 21
1.575
 31
0.0
  0
LINE
  5
1A51
  8
0
 62
     0
 10
5.456968
 20
1.582
 30
0.0
 11
5.810877
 21
1.582
 31
0.0
  0
LINE
  5
1A52
  8
0
 62
     0
 10
5.459968
 20
1.589
 30
0.0
 11
5.813877
 21
1.589
 31
0.0
  0
LINE
  5
1A53
  8
0
 62
     0
 10
5.462968
 20
1.596
 30
0.0
 11
5.816877
 21
1.596
 31
0.0
  0
LINE
  5
1A54
  8
0
 62
     0
 10
5.465968
 20
1.603
 30
0.0
 11
5.819877
 21
1.603
 31
0.0
  0
LINE
  5
1A55
  8
0
 62
     0
 10
5.468968
 20
1.61
 30
0.0
 11
5.822877
 21
1.61
 31
0.0
  0
LINE
  5
1A56
  8
0
 62
     0
 10
5.471968
 20
1.617
 30
0.0
 11
5.825877
 21
1.617
 31
0.0
  0
LINE
  5
1A57
  8
0
 62
     0
 10
5.474968
 20
1.624
 30
0.0
 11
5.828877
 21
1.624
 31
0.0
  0
LINE
  5
1A58
  8
0
 62
     0
 10
5.477968
 20
1.631
 30
0.0
 11
5.831877
 21
1.631
 31
0.0
  0
LINE
  5
1A59
  8
0
 62
     0
 10
5.480968
 20
1.638
 30
0.0
 11
5.834877
 21
1.638
 31
0.0
  0
LINE
  5
1A5A
  8
0
 62
     0
 10
5.483968
 20
1.645
 30
0.0
 11
5.837877
 21
1.645
 31
0.0
  0
LINE
  5
1A5B
  8
0
 62
     0
 10
5.486968
 20
1.652
 30
0.0
 11
5.840877
 21
1.652
 31
0.0
  0
LINE
  5
1A5C
  8
0
 62
     0
 10
5.489968
 20
1.659
 30
0.0
 11
5.843877
 21
1.659
 31
0.0
  0
LINE
  5
1A5D
  8
0
 62
     0
 10
5.492968
 20
1.666
 30
0.0
 11
5.846877
 21
1.666
 31
0.0
  0
LINE
  5
1A5E
  8
0
 62
     0
 10
5.495968
 20
1.673
 30
0.0
 11
5.849877
 21
1.673
 31
0.0
  0
LINE
  5
1A5F
  8
0
 62
     0
 10
5.498968
 20
1.68
 30
0.0
 11
5.852877
 21
1.68
 31
0.0
  0
LINE
  5
1A60
  8
0
 62
     0
 10
5.511085
 20
1.428
 30
0.0
 11
5.62476
 21
1.428
 31
0.0
  0
LINE
  5
1A61
  8
0
 62
     0
 10
5.508085
 20
1.421
 30
0.0
 11
5.62176
 21
1.421
 31
0.0
  0
LINE
  5
1A62
  8
0
 62
     0
 10
5.505085
 20
1.414
 30
0.0
 11
5.61876
 21
1.414
 31
0.0
  0
LINE
  5
1A63
  8
0
 62
     0
 10
5.502085
 20
1.407
 30
0.0
 11
5.61576
 21
1.407
 31
0.0
  0
LINE
  5
1A64
  8
0
 62
     0
 10
5.499085
 20
1.4
 30
0.0
 11
5.61276
 21
1.4
 31
0.0
  0
LINE
  5
1A65
  8
0
 62
     0
 10
5.496085
 20
1.393
 30
0.0
 11
5.60976
 21
1.393
 31
0.0
  0
LINE
  5
1A66
  8
0
 62
     0
 10
5.493085
 20
1.386
 30
0.0
 11
5.60676
 21
1.386
 31
0.0
  0
LINE
  5
1A67
  8
0
 62
     0
 10
5.490085
 20
1.379
 30
0.0
 11
5.60376
 21
1.379
 31
0.0
  0
LINE
  5
1A68
  8
0
 62
     0
 10
5.487085
 20
1.372
 30
0.0
 11
5.60076
 21
1.372
 31
0.0
  0
LINE
  5
1A69
  8
0
 62
     0
 10
5.484085
 20
1.365
 30
0.0
 11
5.59776
 21
1.365
 31
0.0
  0
LINE
  5
1A6A
  8
0
 62
     0
 10
5.481085
 20
1.358
 30
0.0
 11
5.59476
 21
1.358
 31
0.0
  0
LINE
  5
1A6B
  8
0
 62
     0
 10
5.478085
 20
1.351
 30
0.0
 11
5.59176
 21
1.351
 31
0.0
  0
LINE
  5
1A6C
  8
0
 62
     0
 10
5.475085
 20
1.344
 30
0.0
 11
5.58876
 21
1.344
 31
0.0
  0
LINE
  5
1A6D
  8
0
 62
     0
 10
5.472085
 20
1.337
 30
0.0
 11
5.58576
 21
1.337
 31
0.0
  0
LINE
  5
1A6E
  8
0
 62
     0
 10
5.469085
 20
1.33
 30
0.0
 11
5.58276
 21
1.33
 31
0.0
  0
LINE
  5
1A6F
  8
0
 62
     0
 10
5.466085
 20
1.323
 30
0.0
 11
5.57976
 21
1.323
 31
0.0
  0
ENDBLK
  5
1A71
  8
0
  0
BLOCK
  8
0
  2
*X17
 70
     1
 10
0.0
 20
0.0
 30
0.0
  3
*X17
  1

  0
LINE
  5
1A73
  8
0
 62
     0
 10
5.838431
 20
1.575
 30
0.0
 11
6.177018
 21
1.575
 31
0.0
  0
LINE
  5
1A74
  8
0
 62
     0
 10
5.842373
 20
1.582
 30
0.0
 11
6.180018
 21
1.582
 31
0.0
  0
LINE
  5
1A75
  8
0
 62
     0
 10
5.846611
 20
1.589
 30
0.0
 11
6.183018
 21
1.589
 31
0.0
  0
LINE
  5
1A76
  8
0
 62
     0
 10
5.851164
 20
1.596
 30
0.0
 11
6.186018
 21
1.596
 31
0.0
  0
LINE
  5
1A77
  8
0
 62
     0
 10
5.856051
 20
1.603
 30
0.0
 11
6.189018
 21
1.603
 31
0.0
  0
LINE
  5
1A78
  8
0
 62
     0
 10
5.861297
 20
1.61
 30
0.0
 11
6.192018
 21
1.61
 31
0.0
  0
LINE
  5
1A79
  8
0
 62
     0
 10
5.86693
 20
1.617
 30
0.0
 11
6.195018
 21
1.617
 31
0.0
  0
LINE
  5
1A7A
  8
0
 62
     0
 10
5.873042
 20
1.624
 30
0.0
 11
6.198018
 21
1.624
 31
0.0
  0
LINE
  5
1A7B
  8
0
 62
     0
 10
5.879781
 20
1.631
 30
0.0
 11
6.201018
 21
1.631
 31
0.0
  0
LINE
  5
1A7C
  8
0
 62
     0
 10
5.887247
 20
1.638
 30
0.0
 11
6.204018
 21
1.638
 31
0.0
  0
LINE
  5
1A7D
  8
0
 62
     0
 10
5.895574
 20
1.645
 30
0.0
 11
6.207018
 21
1.645
 31
0.0
  0
LINE
  5
1A7E
  8
0
 62
     0
 10
5.904954
 20
1.652
 30
0.0
 11
6.210018
 21
1.652
 31
0.0
  0
LINE
  5
1A7F
  8
0
 62
     0
 10
5.91568
 20
1.659
 30
0.0
 11
6.213018
 21
1.659
 31
0.0
  0
LINE
  5
1A80
  8
0
 62
     0
 10
5.928514
 20
1.666
 30
0.0
 11
6.216018
 21
1.666
 31
0.0
  0
LINE
  5
1A81
  8
0
 62
     0
 10
5.945646
 20
1.673
 30
0.0
 11
6.219018
 21
1.673
 31
0.0
  0
LINE
  5
1A82
  8
0
 62
     0
 10
5.977809
 20
1.68
 30
0.0
 11
6.222018
 21
1.68
 31
0.0
  0
LINE
  5
1A83
  8
0
 62
     0
 10
5.810219
 20
1.428
 30
0.0
 11
6.114018
 21
1.428
 31
0.0
  0
LINE
  5
1A84
  8
0
 62
     0
 10
5.811489
 20
1.421
 30
0.0
 11
6.111018
 21
1.421
 31
0.0
  0
LINE
  5
1A85
  8
0
 62
     0
 10
5.813027
 20
1.414
 30
0.0
 11
6.108018
 21
1.414
 31
0.0
  0
LINE
  5
1A86
  8
0
 62
     0
 10
5.814898
 20
1.407
 30
0.0
 11
6.105018
 21
1.407
 31
0.0
  0
LINE
  5
1A87
  8
0
 62
     0
 10
5.817144
 20
1.4
 30
0.0
 11
6.102018
 21
1.4
 31
0.0
  0
LINE
  5
1A88
  8
0
 62
     0
 10
5.819782
 20
1.393
 30
0.0
 11
6.099018
 21
1.393
 31
0.0
  0
LINE
  5
1A89
  8
0
 62
     0
 10
5.822835
 20
1.386
 30
0.0
 11
6.096018
 21
1.386
 31
0.0
  0
LINE
  5
1A8A
  8
0
 62
     0
 10
5.826334
 20
1.379
 30
0.0
 11
6.093018
 21
1.379
 31
0.0
  0
LINE
  5
1A8B
  8
0
 62
     0
 10
5.830314
 20
1.372
 30
0.0
 11
6.090018
 21
1.372
 31
0.0
  0
LINE
  5
1A8C
  8
0
 62
     0
 10
5.834822
 20
1.365
 30
0.0
 11
6.087018
 21
1.365
 31
0.0
  0
LINE
  5
1A8D
  8
0
 62
     0
 10
5.839922
 20
1.358
 30
0.0
 11
6.084018
 21
1.358
 31
0.0
  0
LINE
  5
1A8E
  8
0
 62
     0
 10
5.845922
 20
1.351
 30
0.0
 11
6.081018
 21
1.351
 31
0.0
  0
LINE
  5
1A8F
  8
0
 62
     0
 10
5.853204
 20
1.344
 30
0.0
 11
6.078018
 21
1.344
 31
0.0
  0
LINE
  5
1A90
  8
0
 62
     0
 10
5.862265
 20
1.337
 30
0.0
 11
6.075018
 21
1.337
 31
0.0
  0
LINE
  5
1A91
  8
0
 62
     0
 10
5.874173
 20
1.33
 30
0.0
 11
6.072018
 21
1.33
 31
0.0
  0
LINE
  5
1A92
  8
0
 62
     0
 10
5.89256
 20
1.323
 30
0.0
 11
6.069018
 21
1.323
 31
0.0
  0
ENDBLK
  5
1A94
  8
0
  0
BLOCK
  8
0
  2
*X18
 70
     1
 10
0.0
 20
0.0
 30
0.0
  3
*X18
  1

  0
LINE
  5
1A96
  8
0
 62
     0
 10
6.221546
 20
1.575
 30
0.0
 11
6.335221
 21
1.575
 31
0.0
  0
LINE
  5
1A97
  8
0
 62
     0
 10
6.224546
 20
1.582
 30
0.0
 11
6.338221
 21
1.582
 31
0.0
  0
LINE
  5
1A98
  8
0
 62
     0
 10
6.227546
 20
1.589
 30
0.0
 11
6.341221
 21
1.589
 31
0.0
  0
LINE
  5
1A99
  8
0
 62
     0
 10
6.230546
 20
1.596
 30
0.0
 11
6.344221
 21
1.596
 31
0.0
  0
LINE
  5
1A9A
  8
0
 62
     0
 10
6.233546
 20
1.603
 30
0.0
 11
6.347221
 21
1.603
 31
0.0
  0
LINE
  5
1A9B
  8
0
 62
     0
 10
6.236546
 20
1.61
 30
0.0
 11
6.350221
 21
1.61
 31
0.0
  0
LINE
  5
1A9C
  8
0
 62
     0
 10
6.239546
 20
1.617
 30
0.0
 11
6.353221
 21
1.617
 31
0.0
  0
LINE
  5
1A9D
  8
0
 62
     0
 10
6.242546
 20
1.624
 30
0.0
 11
6.356221
 21
1.624
 31
0.0
  0
LINE
  5
1A9E
  8
0
 62
     0
 10
6.245546
 20
1.631
 30
0.0
 11
6.359221
 21
1.631
 31
0.0
  0
LINE
  5
1A9F
  8
0
 62
     0
 10
6.248546
 20
1.638
 30
0.0
 11
6.362221
 21
1.638
 31
0.0
  0
LINE
  5
1AA0
  8
0
 62
     0
 10
6.251546
 20
1.645
 30
0.0
 11
6.365221
 21
1.645
 31
0.0
  0
LINE
  5
1AA1
  8
0
 62
     0
 10
6.254546
 20
1.652
 30
0.0
 11
6.368221
 21
1.652
 31
0.0
  0
LINE
  5
1AA2
  8
0
 62
     0
 10
6.257546
 20
1.659
 30
0.0
 11
6.371221
 21
1.659
 31
0.0
  0
LINE
  5
1AA3
  8
0
 62
     0
 10
6.260546
 20
1.666
 30
0.0
 11
6.374221
 21
1.666
 31
0.0
  0
LINE
  5
1AA4
  8
0
 62
     0
 10
6.263546
 20
1.673
 30
0.0
 11
6.377221
 21
1.673
 31
0.0
  0
LINE
  5
1AA5
  8
0
 62
     0
 10
6.266546
 20
1.68
 30
0.0
 11
6.380221
 21
1.68
 31
0.0
  0
LINE
  5
1AA6
  8
0
 62
     0
 10
6.158546
 20
1.428
 30
0.0
 11
6.272221
 21
1.428
 31
0.0
  0
LINE
  5
1AA7
  8
0
 62
     0
 10
6.155546
 20
1.421
 30
0.0
 11
6.269221
 21
1.421
 31
0.0
  0
LINE
  5
1AA8
  8
0
 62
     0
 10
6.152546
 20
1.414
 30
0.0
 11
6.266221
 21
1.414
 31
0.0
  0
LINE
  5
1AA9
  8
0
 62
     0
 10
6.149546
 20
1.407
 30
0.0
 11
6.263221
 21
1.407
 31
0.0
  0
LINE
  5
1AAA
  8
0
 62
     0
 10
6.146546
 20
1.4
 30
0.0
 11
6.260221
 21
1.4
 31
0.0
  0
LINE
  5
1AAB
  8
0
 62
     0
 10
6.143546
 20
1.393
 30
0.0
 11
6.257221
 21
1.393
 31
0.0
  0
LINE
  5
1AAC
  8
0
 62
     0
 10
6.140546
 20
1.386
 30
0.0
 11
6.254221
 21
1.386
 31
0.0
  0
LINE
  5
1AAD
  8
0
 62
     0
 10
6.137546
 20
1.379
 30
0.0
 11
6.251221
 21
1.379
 31
0.0
  0
LINE
  5
1AAE
  8
0
 62
     0
 10
6.134546
 20
1.372
 30
0.0
 11
6.248221
 21
1.372
 31
0.0
  0
LINE
  5
1AAF
  8
0
 62
     0
 10
6.131546
 20
1.365
 30
0.0
 11
6.245221
 21
1.365
 31
0.0
  0
LINE
  5
1AB0
  8
0
 62
     0
 10
6.128546
 20
1.358
 30
0.0
 11
6.242221
 21
1.358
 31
0.0
  0
LINE
  5
1AB1
  8
0
 62
     0
 10
6.125546
 20
1.351
 30
0.0
 11
6.239221
 21
1.351
 31
0.0
  0
LINE
  5
1AB2
  8
0
 62
     0
 10
6.122546
 20
1.344
 30
0.0
 11
6.236221
 21
1.344
 31
0.0
  0
LINE
  5
1AB3
  8
0
 62
     0
 10
6.119546
 20
1.337
 30
0.0
 11
6.233221
 21
1.337
 31
0.0
  0
LINE
  5
1AB4
  8
0
 62
     0
 10
6.116546
 20
1.33
 30
0.0
 11
6.230221
 21
1.33
 31
0.0
  0
LINE
  5
1AB5
  8
0
 62
     0
 10
6.113546
 20
1.323
 30
0.0
 11
6.227221
 21
1.323
 31
0.0
  0
ENDBLK
  5
1AB7
  8
0
  0
BLOCK
  8
0
  2
REVISE
 70
     2
 10
0.0
 20
0.0
 30
0.0
  3
REVISE
  1

  0
LINE
  5
1AB9
  8
0
 10
3.5
 20
0.0
 30
0.0
 11
3.5
 21
-0.25
 31
0.0
  0
LINE
  5
1ABA
  8
0
 10
2.75
 20
0.0
 30
0.0
 11
2.75
 21
-0.25
 31
0.0
  0
LINE
  5
1ABB
  8
0
 10
0.25
 20
0.0
 30
0.0
 11
0.25
 21
-0.25
 31
0.0
  0
ATTDEF
  5
1ABC
  8
0
 10
0.03125
 20
-0.1875
 30
0.0
 40
0.125
  1

 41
0.768293
 72
     5
 11
0.21875
 21
-0.1875
 31
0.0
  3
REVISION NO.
  2
NO
 70
     8
  0
ATTDEF
  5
1ABD
  8
0
 10
0.3125
 20
-0.1875
 30
0.0
 40
0.125
  1

  3
REVISION
  2
REV
 70
     8
  0
ATTDEF
  5
1ABE
  8
0
 10
2.8125
 20
-0.1875
 30
0.0
 40
0.125
  1

 41
1.185484
 72
     5
 11
3.46875
 21
-0.1875
 31
0.0
  3
REVISION DATE
  2
RDATE
 70
     8
  0
ATTDEF
  5
1ABF
  8
0
 10
3.53125
 20
-0.1875
 30
0.0
 40
0.125
  1

  3
REVISION BY
  2
BY
 70
     8
  0
ENDBLK
  5
1AC1
  8
0
  0
ENDSEC
  0
SECTION
  2
ENTITIES
  0
INSERT
  5
56
  8
BORDER
  2
MASTER-BORDER
 10
0.0
 20
0.0
 30
0.0
 41
5.3333
 42
5.3333
 43
5.3333
1001
PAPERSPACE
1002
{
1040
0.0
1002
}
1001
MASTER_SIZING
1002
{
1040
0.0
1010
17.0
1020
11.0
1030
5.3333
1002
}
  0
INSERT
  5
113
  8
BORDER
 66
     1
  2
TITLEB
 10
87.99945
 20
2.66665
 30
0.0
 41
5.3333
 42
5.3333
 43
5.3333
1001
MASTER-TITLE
1002
{
1000
MGTITLE
1002
}
  0
ATTRIB
  5
114
  8
0
 10
81.166159
 20
3.999975
 30
0.0
 40
0.999994
  1
  C4
 41
0.8
  2
DWGNO
 70
     0
  0
ATTRIB
  5
115
  8
0
 10
70.166228
 20
4.166641
 30
0.0
 40
0.666663
  1
RJC
 41
0.8
  2
DRNBY
 70
     0
  0
ATTRIB
  5
116
  8
0
 10
74.6662
 20
4.166641
 30
0.0
 40
0.666663
  1
04-12-01
 41
0.8625
 72
     5
 11
78.499509
 21
4.166641
 31
0.0
  2
DATE
 70
     0
  0
ATTRIB
  5
117
  8
0
 10
69.832897
 20
2.833316
 30
0.0
 40
0.666663
  1
3/16"=1"
 41
0.8
  2
SCALE
 70
     0
  0
ATTRIB
  5
118
  8
0
 10
75.166197
 20
2.833316
 30
0.0
 40
0.666663
  1

 41
0.8
  2
APRVD
 70
     0
  0
ATTRIB
  5
119
  8
0
 10
84.499472
 20
2.833316
 30
0.0
 40
0.666663
  1
1
 41
0.8
  2
SHT
 70
     0
  0
ATTRIB
  5
11A
  8
0
 10
86.499459
 20
2.833316
 30
0.0
 40
0.666663
  1
 1
 41
0.8
  2
OFSHT
 70
     0
  0
ATTRIB
  5
11B
  8
0
 10
68.832903
 20
7.333288
 30
0.0
 40
0.999994
  1
KLC CABINET SIZE 4
 41
0.8
  2
DESC1
 70
     0
  0
ATTRIB
  5
11C
  8
0
 10
68.832903
 20
5.833297
 30
0.0
 40
0.999994
  1
BASE AND COVER
 41
0.8
  2
DESC2
 70
     0
  0
ATTRIB
  5
11D
  8
0
 10
65.499591
 20
8.499947
 30
0.0
 40
0.666663
  1
.01
 41
0.8
  2
TOLXX
 70
     0
  0
ATTRIB
  5
11E
  8
0
 10
65.499591
 20
7.166622
 30
0.0
 40
0.666663
  1
.005
 41
0.8
  2
TOLXXX
 70
     0
  0
ATTRIB
  5
11F
  8
0
 10
64.166266
 20
5.166634
 30
0.0
 40
0.666663
  1
1/32
 41
0.8
  2
TOLFRAC
 70
     0
  0
ATTRIB
  5
120
  8
0
 10
64.166266
 20
3.166647
 30
0.0
 40
0.666663
  1
1/2%%d
 41
0.8
  2
TOLANG
 70
     0
  0
ATTRIB
  5
121
  8
0
 10
79.499503
 20
3.166647
 30
0.0
 40
1.333325
  1
B
 41
0.8
  2
DWG.SIZE
 70
     0
  0
SEQEND
  5
122
  8
BORDER
  0
LINE
  5
136D
  8
0
 10
60.618722
 20
33.859705
 30
0.0
 11
45.940513
 21
33.859705
 31
0.0
  0
LINE
  5
136E
  8
0
 10
60.618722
 20
33.929705
 30
0.0
 11
45.940513
 21
33.929705
 31
0.0
  0
LINE
  5
136F
  8
0
 10
45.937141
 20
21.933924
 30
0.0
 11
60.625485
 21
21.933924
 31
0.0
  0
LINE
  5
1370
  8
0
 10
45.937141
 20
23.433924
 30
0.0
 11
60.625485
 21
23.433924
 31
0.0
  0
LINE
  5
1371
  8
HIDDEN
 10
45.937141
 20
22.003924
 30
0.0
 11
60.625485
 21
22.003924
 31
0.0
  0
LINE
  5
1372
  8
CENTERLINE
  6
CONTINUOUS
 10
46.563101
 20
24.434705
 30
0.0
 11
47.499101
 21
24.434705
 31
0.0
  0
LINE
  5
1373
  8
CENTERLINE
  6
CONTINUOUS
 10
46.671101
 20
32.434705
 30
0.0
 11
47.391101
 21
32.434705
 31
0.0
  0
LINE
  5
1374
  8
CENTERLINE
  6
CONTINUOUS
 10
46.671101
 20
31.934705
 30
0.0
 11
47.391101
 21
31.934705
 31
0.0
  0
LINE
  5
137A
  8
0
 10
45.850513
 20
33.789705
 30
0.0
 11
45.850513
 21
22.090551
 31
0.0
  0
LINE
  5
137B
  8
0
 10
45.780513
 20
33.789705
 30
0.0
 11
45.780513
 21
22.090551
 31
0.0
  0
LINE
  5
137F
  8
0
 10
45.937141
 20
21.933924
 30
0.0
 11
45.937141
 21
23.433924
 31
0.0
  0
LINE
  5
1380
  8
CENTERLINE
  6
CONTINUOUS
 10
46.528722
 20
21.46983
 30
0.0
 11
46.528722
 21
22.338113
 31
0.0
  0
ARC
  5
1381
  8
0
 10
45.940513
 20
22.093924
 30
0.0
 40
0.090063
 50
180.0
 51
270.0
  0
ARC
  5
1382
  8
0
 10
45.940513
 20
22.093924
 30
0.0
 40
0.160036
 50
180.0
 51
270.0
  0
LINE
  5
1383
  8
0
 10
45.780513
 20
23.433924
 30
0.0
 11
45.850513
 21
23.433924
 31
0.0
  0
LINE
  5
1385
  8
0
 10
45.940513
 20
33.789705
 30
0.0
 11
45.780513
 21
33.789705
 31
0.0
  0
LINE
  5
1386
  8
0
 10
45.940513
 20
33.929705
 30
0.0
 11
45.940513
 21
33.789705
 31
0.0
  0
POLYLINE
  5
138A
  8
0
 66
     1
 10
0.0
 20
0.0
 30
0.0
 70
     1
  0
VERTEX
  5
2F11
  8
0
 10
56.015513
 20
29.183924
 30
0.0
  0
VERTEX
  5
2F12
  8
0
 10
56.015513
 20
30.433924
 30
0.0
  0
VERTEX
  5
2F13
  8
0
 10
55.825513
 20
30.433924
 30
0.0
  0
VERTEX
  5
2F14
  8
0
 10
55.825513
 20
29.183924
 30
0.0
  0
SEQEND
  5
2F15
  8
0
  0
LINE
  5
138B
  8
CENTERLINE
  6
CONTINUOUS
 10
55.813313
 20
32.434705
 30
0.0
 11
56.749313
 21
32.434705
 31
0.0
  0
LINE
  5
138C
  8
CENTERLINE
  6
CONTINUOUS
 10
55.813313
 20
27.184705
 30
0.0
 11
56.749313
 21
27.184705
 31
0.0
  0
POLYLINE
  5
138F
  8
HIDDEN
  6
HIDDEN
 66
     1
 10
0.0
 20
0.0
 30
0.0
  0
VERTEX
  5
2F16
  8
HIDDEN
  6
HIDDEN
 10
55.825513
 20
23.203159
 30
0.0
  0
VERTEX
  5
2F17
  8
HIDDEN
  6
HIDDEN
 10
55.825513
 20
22.433924
 30
0.0
  0
VERTEX
  5
2F18
  8
HIDDEN
  6
HIDDEN
 10
56.015513
 20
22.433924
 30
0.0
  0
SEQEND
  5
2F19
  8
HIDDEN
  6
HIDDEN
  0
POLYLINE
  5
1390
  8
0
 66
     1
 10
0.0
 20
0.0
 30
0.0
  0
VERTEX
  5
2F1A
  8
0
 10
56.015513
 20
23.433924
 30
0.0
  0
VERTEX
  5
2F1B
  8
0
 10
56.015513
 20
23.683924
 30
0.0
  0
VERTEX
  5
2F1C
  8
0
 10
55.825513
 20
23.683924
 30
0.0
  0
VERTEX
  5
2F1D
  8
0
 10
55.825513
 20
23.433924
 30
0.0
  0
SEQEND
  5
2F1E
  8
0
  0
LINE
  5
1394
  8
CENTERLINE
  6
CONTINUOUS
 10
47.031101
 20
23.966705
 30
0.0
 11
47.031101
 21
24.902705
 31
0.0
  0
CIRCLE
  5
1395
  8
0
 10
47.031101
 20
24.434705
 30
0.0
 40
0.164
  0
POLYLINE
  5
1396
  8
HIDDEN
  6
HIDDEN
 66
     1
 10
0.0
 20
0.0
 30
0.0
  0
VERTEX
  5
2F1F
  8
HIDDEN
  6
HIDDEN
 10
48.975513
 20
22.433924
 30
0.0
  0
VERTEX
  5
2F20
  8
HIDDEN
  6
HIDDEN
 10
48.975513
 20
23.203159
 30
0.0
  0
SEQEND
  5
2F21
  8
HIDDEN
  6
HIDDEN
  0
POLYLINE
  5
1397
  8
HIDDEN
  6
HIDDEN
 66
     1
 10
0.0
 20
0.0
 30
0.0
  0
VERTEX
  5
2F22
  8
HIDDEN
  6
HIDDEN
 10
48.785513
 20
23.203159
 30
0.0
  0
VERTEX
  5
2F23
  8
HIDDEN
  6
HIDDEN
 10
48.785513
 20
22.433924
 30
0.0
  0
VERTEX
  5
2F24
  8
HIDDEN
  6
HIDDEN
 10
48.975513
 20
22.433924
 30
0.0
  0
SEQEND
  5
2F25
  8
HIDDEN
  6
HIDDEN
  0
POLYLINE
  5
1398
  8
HIDDEN
  6
HIDDEN
 66
     1
 10
0.0
 20
0.0
 30
0.0
  0
VERTEX
  5
2F26
  8
HIDDEN
  6
HIDDEN
 10
48.535513
 20
22.433924
 30
0.0
  0
VERTEX
  5
2F27
  8
HIDDEN
  6
HIDDEN
 10
48.535513
 20
23.203159
 30
0.0
  0
SEQEND
  5
2F28
  8
HIDDEN
  6
HIDDEN
  0
POLYLINE
  5
1399
  8
HIDDEN
  6
HIDDEN
 66
     1
 10
0.0
 20
0.0
 30
0.0
  0
VERTEX
  5
2F29
  8
HIDDEN
  6
HIDDEN
 10
48.345513
 20
23.203159
 30
0.0
  0
VERTEX
  5
2F2A
  8
HIDDEN
  6
HIDDEN
 10
48.345513
 20
22.433924
 30
0.0
  0
VERTEX
  5
2F2B
  8
HIDDEN
  6
HIDDEN
 10
48.535513
 20
22.433924
 30
0.0
  0
SEQEND
  5
2F2C
  8
HIDDEN
  6
HIDDEN
  0
POLYLINE
  5
139A
  8
HIDDEN
  6
HIDDEN
 66
     1
 10
0.0
 20
0.0
 30
0.0
  0
VERTEX
  5
2F2D
  8
HIDDEN
  6
HIDDEN
 10
48.095513
 20
22.433924
 30
0.0
  0
VERTEX
  5
2F2E
  8
HIDDEN
  6
HIDDEN
 10
48.095513
 20
23.203159
 30
0.0
  0
SEQEND
  5
2F2F
  8
HIDDEN
  6
HIDDEN
  0
POLYLINE
  5
139B
  8
HIDDEN
  6
HIDDEN
 66
     1
 10
0.0
 20
0.0
 30
0.0
  0
VERTEX
  5
2F30
  8
HIDDEN
  6
HIDDEN
 10
47.905513
 20
23.203159
 30
0.0
  0
VERTEX
  5
2F31
  8
HIDDEN
  6
HIDDEN
 10
47.905513
 20
22.433924
 30
0.0
  0
VERTEX
  5
2F32
  8
HIDDEN
  6
HIDDEN
 10
48.095513
 20
22.433924
 30
0.0
  0
SEQEND
  5
2F33
  8
HIDDEN
  6
HIDDEN
  0
LINE
  5
139C
  8
CENTERLINE
  6
CONTINUOUS
 10
47.418722
 20
22.933924
 30
0.0
 11
48.138722
 21
22.933924
 31
0.0
  0
CIRCLE
  5
139D
  8
0
 10
47.778722
 20
22.933924
 30
0.0
 40
0.068
  0
LINE
  5
139E
  8
CENTERLINE
  6
CONTINUOUS
 10
47.778722
 20
22.573924
 30
0.0
 11
47.778722
 21
23.293924
 31
0.0
  0
POLYLINE
  5
139F
  8
0
 66
     1
 10
0.0
 20
0.0
 30
0.0
  0
VERTEX
  5
2F34
  8
0
 10
48.535513
 20
23.433924
 30
0.0
  0
VERTEX
  5
2F35
  8
0
 10
48.535513
 20
23.683924
 30
0.0
  0
VERTEX
  5
2F36
  8
0
 10
48.345513
 20
23.683924
 30
0.0
  0
VERTEX
  5
2F37
  8
0
 10
48.345513
 20
23.433924
 30
0.0
  0
SEQEND
  5
2F38
  8
0
  0
POLYLINE
  5
13A0
  8
0
 66
     1
 10
0.0
 20
0.0
 30
0.0
  0
VERTEX
  5
2F39
  8
0
 10
48.095513
 20
23.433924
 30
0.0
  0
VERTEX
  5
2F3A
  8
0
 10
48.095513
 20
23.683924
 30
0.0
  0
VERTEX
  5
2F3B
  8
0
 10
47.905513
 20
23.683924
 30
0.0
  0
VERTEX
  5
2F3C
  8
0
 10
47.905513
 20
23.433924
 30
0.0
  0
SEQEND
  5
2F3D
  8
0
  0
POLYLINE
  5
13A1
  8
0
 66
     1
 10
0.0
 20
0.0
 30
0.0
  0
VERTEX
  5
2F3E
  8
0
 10
48.975513
 20
23.433924
 30
0.0
  0
VERTEX
  5
2F3F
  8
0
 10
48.975513
 20
23.683924
 30
0.0
  0
VERTEX
  5
2F40
  8
0
 10
48.785513
 20
23.683924
 30
0.0
  0
VERTEX
  5
2F41
  8
0
 10
48.785513
 20
23.433924
 30
0.0
  0
SEQEND
  5
2F42
  8
0
  0
POLYLINE
  5
13A2
  8
HIDDEN
  6
HIDDEN
 66
     1
 10
0.0
 20
0.0
 30
0.0
  0
VERTEX
  5
2F43
  8
HIDDEN
  6
HIDDEN
 10
51.175513
 20
22.433924
 30
0.0
  0
VERTEX
  5
2F44
  8
HIDDEN
  6
HIDDEN
 10
51.175513
 20
23.203159
 30
0.0
  0
SEQEND
  5
2F45
  8
HIDDEN
  6
HIDDEN
  0
POLYLINE
  5
13A3
  8
HIDDEN
  6
HIDDEN
 66
     1
 10
0.0
 20
0.0
 30
0.0
  0
VERTEX
  5
2F46
  8
HIDDEN
  6
HIDDEN
 10
50.985513
 20
23.203159
 30
0.0
  0
VERTEX
  5
2F47
  8
HIDDEN
  6
HIDDEN
 10
50.985513
 20
22.433924
 30
0.0
  0
VERTEX
  5
2F48
  8
HIDDEN
  6
HIDDEN
 10
51.175513
 20
22.433924
 30
0.0
  0
SEQEND
  5
2F49
  8
HIDDEN
  6
HIDDEN
  0
POLYLINE
  5
13A4
  8
HIDDEN
  6
HIDDEN
 66
     1
 10
0.0
 20
0.0
 30
0.0
  0
VERTEX
  5
2F4A
  8
HIDDEN
  6
HIDDEN
 10
50.735513
 20
22.433924
 30
0.0
  0
VERTEX
  5
2F4B
  8
HIDDEN
  6
HIDDEN
 10
50.735513
 20
23.203159
 30
0.0
  0
SEQEND
  5
2F4C
  8
HIDDEN
  6
HIDDEN
  0
POLYLINE
  5
13A5
  8
HIDDEN
  6
HIDDEN
 66
     1
 10
0.0
 20
0.0
 30
0.0
  0
VERTEX
  5
2F4D
  8
HIDDEN
  6
HIDDEN
 10
50.545513
 20
23.203159
 30
0.0
  0
VERTEX
  5
2F4E
  8
HIDDEN
  6
HIDDEN
 10
50.545513
 20
22.433924
 30
0.0
  0
VERTEX
  5
2F4F
  8
HIDDEN
  6
HIDDEN
 10
50.735513
 20
22.433924
 30
0.0
  0
SEQEND
  5
2F50
  8
HIDDEN
  6
HIDDEN
  0
POLYLINE
  5
13A6
  8
HIDDEN
  6
HIDDEN
 66
     1
 10
0.0
 20
0.0
 30
0.0
  0
VERTEX
  5
2F51
  8
HIDDEN
  6
HIDDEN
 10
50.295513
 20
22.433924
 30
0.0
  0
VERTEX
  5
2F52
  8
HIDDEN
  6
HIDDEN
 10
50.295513
 20
23.203159
 30
0.0
  0
SEQEND
  5
2F53
  8
HIDDEN
  6
HIDDEN
  0
POLYLINE
  5
13A7
  8
HIDDEN
  6
HIDDEN
 66
     1
 10
0.0
 20
0.0
 30
0.0
  0
VERTEX
  5
2F54
  8
HIDDEN
  6
HIDDEN
 10
50.105513
 20
23.203159
 30
0.0
  0
VERTEX
  5
2F55
  8
HIDDEN
  6
HIDDEN
 10
50.105513
 20
22.433924
 30
0.0
  0
VERTEX
  5
2F56
  8
HIDDEN
  6
HIDDEN
 10
50.295513
 20
22.433924
 30
0.0
  0
SEQEND
  5
2F57
  8
HIDDEN
  6
HIDDEN
  0
POLYLINE
  5
13A8
  8
HIDDEN
  6
HIDDEN
 66
     1
 10
0.0
 20
0.0
 30
0.0
  0
VERTEX
  5
2F58
  8
HIDDEN
  6
HIDDEN
 10
49.855513
 20
22.433924
 30
0.0
  0
VERTEX
  5
2F59
  8
HIDDEN
  6
HIDDEN
 10
49.855513
 20
23.203159
 30
0.0
  0
SEQEND
  5
2F5A
  8
HIDDEN
  6
HIDDEN
  0
POLYLINE
  5
13A9
  8
HIDDEN
  6
HIDDEN
 66
     1
 10
0.0
 20
0.0
 30
0.0
  0
VERTEX
  5
2F5B
  8
HIDDEN
  6
HIDDEN
 10
49.665513
 20
23.203159
 30
0.0
  0
VERTEX
  5
2F5C
  8
HIDDEN
  6
HIDDEN
 10
49.665513
 20
22.433924
 30
0.0
  0
VERTEX
  5
2F5D
  8
HIDDEN
  6
HIDDEN
 10
49.855513
 20
22.433924
 30
0.0
  0
SEQEND
  5
2F5E
  8
HIDDEN
  6
HIDDEN
  0
POLYLINE
  5
13AA
  8
HIDDEN
  6
HIDDEN
 66
     1
 10
0.0
 20
0.0
 30
0.0
  0
VERTEX
  5
2F5F
  8
HIDDEN
  6
HIDDEN
 10
49.415513
 20
22.433924
 30
0.0
  0
VERTEX
  5
2F60
  8
HIDDEN
  6
HIDDEN
 10
49.415513
 20
23.203159
 30
0.0
  0
SEQEND
  5
2F61
  8
HIDDEN
  6
HIDDEN
  0
POLYLINE
  5
13AB
  8
HIDDEN
  6
HIDDEN
 66
     1
 10
0.0
 20
0.0
 30
0.0
  0
VERTEX
  5
2F62
  8
HIDDEN
  6
HIDDEN
 10
49.225513
 20
23.203159
 30
0.0
  0
VERTEX
  5
2F63
  8
HIDDEN
  6
HIDDEN
 10
49.225513
 20
22.433924
 30
0.0
  0
VERTEX
  5
2F64
  8
HIDDEN
  6
HIDDEN
 10
49.415513
 20
22.433924
 30
0.0
  0
SEQEND
  5
2F65
  8
HIDDEN
  6
HIDDEN
  0
POLYLINE
  5
13AC
  8
0
 66
     1
 10
0.0
 20
0.0
 30
0.0
  0
VERTEX
  5
2F66
  8
0
 10
50.295513
 20
23.433924
 30
0.0
  0
VERTEX
  5
2F67
  8
0
 10
50.295513
 20
23.683924
 30
0.0
  0
VERTEX
  5
2F68
  8
0
 10
50.105513
 20
23.683924
 30
0.0
  0
VERTEX
  5
2F69
  8
0
 10
50.105513
 20
23.433924
 30
0.0
  0
SEQEND
  5
2F6A
  8
0
  0
POLYLINE
  5
13AD
  8
0
 66
     1
 10
0.0
 20
0.0
 30
0.0
  0
VERTEX
  5
2F6B
  8
0
 10
49.415513
 20
23.433924
 30
0.0
  0
VERTEX
  5
2F6C
  8
0
 10
49.415513
 20
23.683924
 30
0.0
  0
VERTEX
  5
2F6D
  8
0
 10
49.225513
 20
23.683924
 30
0.0
  0
VERTEX
  5
2F6E
  8
0
 10
49.225513
 20
23.433924
 30
0.0
  0
SEQEND
  5
2F6F
  8
0
  0
POLYLINE
  5
13AE
  8
0
 66
     1
 10
0.0
 20
0.0
 30
0.0
  0
VERTEX
  5
2F70
  8
0
 10
49.855513
 20
23.433924
 30
0.0
  0
VERTEX
  5
2F71
  8
0
 10
49.855513
 20
23.683924
 30
0.0
  0
VERTEX
  5
2F72
  8
0
 10
49.665513
 20
23.683924
 30
0.0
  0
VERTEX
  5
2F73
  8
0
 10
49.665513
 20
23.433924
 30
0.0
  0
SEQEND
  5
2F74
  8
0
  0
POLYLINE
  5
13AF
  8
0
 66
     1
 10
0.0
 20
0.0
 30
0.0
  0
VERTEX
  5
2F75
  8
0
 10
50.735513
 20
23.433924
 30
0.0
  0
VERTEX
  5
2F76
  8
0
 10
50.735513
 20
23.683924
 30
0.0
  0
VERTEX
  5
2F77
  8
0
 10
50.545513
 20
23.683924
 30
0.0
  0
VERTEX
  5
2F78
  8
0
 10
50.545513
 20
23.433924
 30
0.0
  0
SEQEND
  5
2F79
  8
0
  0
POLYLINE
  5
13B0
  8
0
 66
     1
 10
0.0
 20
0.0
 30
0.0
  0
VERTEX
  5
2F7A
  8
0
 10
51.175513
 20
23.433924
 30
0.0
  0
VERTEX
  5
2F7B
  8
0
 10
51.175513
 20
23.683924
 30
0.0
  0
VERTEX
  5
2F7C
  8
0
 10
50.985513
 20
23.683924
 30
0.0
  0
VERTEX
  5
2F7D
  8
0
 10
50.985513
 20
23.433924
 30
0.0
  0
SEQEND
  5
2F7E
  8
0
  0
CIRCLE
  5
13B1
  8
0
 10
50.281313
 20
27.184705
 30
0.0
 40
0.155
  0
LINE
  5
13B2
  8
CENTERLINE
  6
CONTINUOUS
 10
49.813313
 20
27.184705
 30
0.0
 11
50.749313
 21
27.184705
 31
0.0
  0
LINE
  5
13B3
  8
CENTERLINE
  6
CONTINUOUS
 10
50.281313
 20
26.716705
 30
0.0
 11
50.281313
 21
27.652705
 31
0.0
  0
POLYLINE
  5
13B4
  8
HIDDEN
  6
HIDDEN
 66
     1
 10
0.0
 20
0.0
 30
0.0
  0
VERTEX
  5
2F7F
  8
HIDDEN
  6
HIDDEN
 10
52.495513
 20
22.433924
 30
0.0
  0
VERTEX
  5
2F80
  8
HIDDEN
  6
HIDDEN
 10
52.495513
 20
23.203159
 30
0.0
  0
SEQEND
  5
2F81
  8
HIDDEN
  6
HIDDEN
  0
POLYLINE
  5
13B5
  8
HIDDEN
  6
HIDDEN
 66
     1
 10
0.0
 20
0.0
 30
0.0
  0
VERTEX
  5
2F82
  8
HIDDEN
  6
HIDDEN
 10
52.305513
 20
23.203159
 30
0.0
  0
VERTEX
  5
2F83
  8
HIDDEN
  6
HIDDEN
 10
52.305513
 20
22.433924
 30
0.0
  0
VERTEX
  5
2F84
  8
HIDDEN
  6
HIDDEN
 10
52.495513
 20
22.433924
 30
0.0
  0
SEQEND
  5
2F85
  8
HIDDEN
  6
HIDDEN
  0
POLYLINE
  5
13B6
  8
HIDDEN
  6
HIDDEN
 66
     1
 10
0.0
 20
0.0
 30
0.0
  0
VERTEX
  5
2F86
  8
HIDDEN
  6
HIDDEN
 10
52.055513
 20
22.433924
 30
0.0
  0
VERTEX
  5
2F87
  8
HIDDEN
  6
HIDDEN
 10
52.055513
 20
23.203159
 30
0.0
  0
SEQEND
  5
2F88
  8
HIDDEN
  6
HIDDEN
  0
POLYLINE
  5
13B7
  8
HIDDEN
  6
HIDDEN
 66
     1
 10
0.0
 20
0.0
 30
0.0
  0
VERTEX
  5
2F89
  8
HIDDEN
  6
HIDDEN
 10
51.865513
 20
23.203159
 30
0.0
  0
VERTEX
  5
2F8A
  8
HIDDEN
  6
HIDDEN
 10
51.865513
 20
22.433924
 30
0.0
  0
VERTEX
  5
2F8B
  8
HIDDEN
  6
HIDDEN
 10
52.055513
 20
22.433924
 30
0.0
  0
SEQEND
  5
2F8C
  8
HIDDEN
  6
HIDDEN
  0
POLYLINE
  5
13B8
  8
HIDDEN
  6
HIDDEN
 66
     1
 10
0.0
 20
0.0
 30
0.0
  0
VERTEX
  5
2F8D
  8
HIDDEN
  6
HIDDEN
 10
51.615513
 20
22.433924
 30
0.0
  0
VERTEX
  5
2F8E
  8
HIDDEN
  6
HIDDEN
 10
51.615513
 20
23.203159
 30
0.0
  0
SEQEND
  5
2F8F
  8
HIDDEN
  6
HIDDEN
  0
POLYLINE
  5
13B9
  8
HIDDEN
  6
HIDDEN
 66
     1
 10
0.0
 20
0.0
 30
0.0
  0
VERTEX
  5
2F90
  8
HIDDEN
  6
HIDDEN
 10
51.425513
 20
23.203159
 30
0.0
  0
VERTEX
  5
2F91
  8
HIDDEN
  6
HIDDEN
 10
51.425513
 20
22.433924
 30
0.0
  0
VERTEX
  5
2F92
  8
HIDDEN
  6
HIDDEN
 10
51.615513
 20
22.433924
 30
0.0
  0
SEQEND
  5
2F93
  8
HIDDEN
  6
HIDDEN
  0
POLYLINE
  5
13BA
  8
HIDDEN
  6
HIDDEN
 66
     1
 10
0.0
 20
0.0
 30
0.0
  0
VERTEX
  5
2F94
  8
HIDDEN
  6
HIDDEN
 10
52.745513
 20
23.203159
 30
0.0
  0
VERTEX
  5
2F95
  8
HIDDEN
  6
HIDDEN
 10
52.745513
 20
22.433924
 30
0.0
  0
VERTEX
  5
2F96
  8
HIDDEN
  6
HIDDEN
 10
52.935513
 20
22.433924
 30
0.0
  0
SEQEND
  5
2F97
  8
HIDDEN
  6
HIDDEN
  0
POLYLINE
  5
13BB
  8
HIDDEN
  6
HIDDEN
 66
     1
 10
0.0
 20
0.0
 30
0.0
  0
VERTEX
  5
2F98
  8
HIDDEN
  6
HIDDEN
 10
52.935513
 20
22.433924
 30
0.0
  0
VERTEX
  5
2F99
  8
HIDDEN
  6
HIDDEN
 10
52.935513
 20
23.203159
 30
0.0
  0
SEQEND
  5
2F9A
  8
HIDDEN
  6
HIDDEN
  0
POLYLINE
  5
13BC
  8
HIDDEN
  6
HIDDEN
 66
     1
 10
0.0
 20
0.0
 30
0.0
  0
VERTEX
  5
2F9B
  8
HIDDEN
  6
HIDDEN
 10
53.185513
 20
23.203159
 30
0.0
  0
VERTEX
  5
2F9C
  8
HIDDEN
  6
HIDDEN
 10
53.185513
 20
22.433924
 30
0.0
  0
VERTEX
  5
2F9D
  8
HIDDEN
  6
HIDDEN
 10
53.375513
 20
22.433924
 30
0.0
  0
SEQEND
  5
2F9E
  8
HIDDEN
  6
HIDDEN
  0
POLYLINE
  5
13BD
  8
HIDDEN
  6
HIDDEN
 66
     1
 10
0.0
 20
0.0
 30
0.0
  0
VERTEX
  5
2F9F
  8
HIDDEN
  6
HIDDEN
 10
53.375513
 20
22.433924
 30
0.0
  0
VERTEX
  5
2FA0
  8
HIDDEN
  6
HIDDEN
 10
53.375513
 20
23.203159
 30
0.0
  0
SEQEND
  5
2FA1
  8
HIDDEN
  6
HIDDEN
  0
LINE
  5
13BE
  8
CENTERLINE
  6
CONTINUOUS
 10
51.479618
 20
21.517834
 30
0.0
 11
51.479618
 21
22.237834
 31
0.0
  0
POLYLINE
  5
13BF
  8
0
 66
     1
 10
0.0
 20
0.0
 30
0.0
  0
VERTEX
  5
2FA2
  8
0
 10
52.495513
 20
23.433924
 30
0.0
  0
VERTEX
  5
2FA3
  8
0
 10
52.495513
 20
23.683924
 30
0.0
  0
VERTEX
  5
2FA4
  8
0
 10
52.305513
 20
23.683924
 30
0.0
  0
VERTEX
  5
2FA5
  8
0
 10
52.305513
 20
23.433924
 30
0.0
  0
SEQEND
  5
2FA6
  8
0
  0
POLYLINE
  5
13C0
  8
0
 66
     1
 10
0.0
 20
0.0
 30
0.0
  0
VERTEX
  5
2FA7
  8
0
 10
52.055513
 20
23.433924
 30
0.0
  0
VERTEX
  5
2FA8
  8
0
 10
52.055513
 20
23.683924
 30
0.0
  0
VERTEX
  5
2FA9
  8
0
 10
51.865513
 20
23.683924
 30
0.0
  0
VERTEX
  5
2FAA
  8
0
 10
51.865513
 20
23.433924
 30
0.0
  0
SEQEND
  5
2FAB
  8
0
  0
POLYLINE
  5
13C1
  8
0
 66
     1
 10
0.0
 20
0.0
 30
0.0
  0
VERTEX
  5
2FAC
  8
0
 10
51.615513
 20
23.433924
 30
0.0
  0
VERTEX
  5
2FAD
  8
0
 10
51.615513
 20
23.683924
 30
0.0
  0
VERTEX
  5
2FAE
  8
0
 10
51.425513
 20
23.683924
 30
0.0
  0
VERTEX
  5
2FAF
  8
0
 10
51.425513
 20
23.433924
 30
0.0
  0
SEQEND
  5
2FB0
  8
0
  0
POLYLINE
  5
13C2
  8
0
 66
     1
 10
0.0
 20
0.0
 30
0.0
  0
VERTEX
  5
2FB1
  8
0
 10
52.935513
 20
23.433924
 30
0.0
  0
VERTEX
  5
2FB2
  8
0
 10
52.935513
 20
23.683924
 30
0.0
  0
VERTEX
  5
2FB3
  8
0
 10
52.745513
 20
23.683924
 30
0.0
  0
VERTEX
  5
2FB4
  8
0
 10
52.745513
 20
23.433924
 30
0.0
  0
SEQEND
  5
2FB5
  8
0
  0
POLYLINE
  5
13C3
  8
0
 66
     1
 10
0.0
 20
0.0
 30
0.0
  0
VERTEX
  5
2FB6
  8
0
 10
53.375513
 20
23.433924
 30
0.0
  0
VERTEX
  5
2FB7
  8
0
 10
53.375513
 20
23.683924
 30
0.0
  0
VERTEX
  5
2FB8
  8
0
 10
53.185513
 20
23.683924
 30
0.0
  0
VERTEX
  5
2FB9
  8
0
 10
53.185513
 20
23.433924
 30
0.0
  0
SEQEND
  5
2FBA
  8
0
  0
POLYLINE
  5
13C4
  8
HIDDEN
  6
HIDDEN
 66
     1
 10
0.0
 20
0.0
 30
0.0
  0
VERTEX
  5
2FBB
  8
HIDDEN
  6
HIDDEN
 10
53.625513
 20
23.203159
 30
0.0
  0
VERTEX
  5
2FBC
  8
HIDDEN
  6
HIDDEN
 10
53.625513
 20
22.433924
 30
0.0
  0
VERTEX
  5
2FBD
  8
HIDDEN
  6
HIDDEN
 10
53.815513
 20
22.433924
 30
0.0
  0
SEQEND
  5
2FBE
  8
HIDDEN
  6
HIDDEN
  0
POLYLINE
  5
13C5
  8
HIDDEN
  6
HIDDEN
 66
     1
 10
0.0
 20
0.0
 30
0.0
  0
VERTEX
  5
2FBF
  8
HIDDEN
  6
HIDDEN
 10
53.815513
 20
22.433924
 30
0.0
  0
VERTEX
  5
2FC0
  8
HIDDEN
  6
HIDDEN
 10
53.815513
 20
23.203159
 30
0.0
  0
SEQEND
  5
2FC1
  8
HIDDEN
  6
HIDDEN
  0
POLYLINE
  5
13C6
  8
HIDDEN
  6
HIDDEN
 66
     1
 10
0.0
 20
0.0
 30
0.0
  0
VERTEX
  5
2FC2
  8
HIDDEN
  6
HIDDEN
 10
54.065513
 20
23.203159
 30
0.0
  0
VERTEX
  5
2FC3
  8
HIDDEN
  6
HIDDEN
 10
54.065513
 20
22.433924
 30
0.0
  0
VERTEX
  5
2FC4
  8
HIDDEN
  6
HIDDEN
 10
54.255513
 20
22.433924
 30
0.0
  0
SEQEND
  5
2FC5
  8
HIDDEN
  6
HIDDEN
  0
POLYLINE
  5
13C7
  8
HIDDEN
  6
HIDDEN
 66
     1
 10
0.0
 20
0.0
 30
0.0
  0
VERTEX
  5
2FC6
  8
HIDDEN
  6
HIDDEN
 10
54.255513
 20
22.433924
 30
0.0
  0
VERTEX
  5
2FC7
  8
HIDDEN
  6
HIDDEN
 10
54.255513
 20
23.203159
 30
0.0
  0
SEQEND
  5
2FC8
  8
HIDDEN
  6
HIDDEN
  0
POLYLINE
  5
13C8
  8
HIDDEN
  6
HIDDEN
 66
     1
 10
0.0
 20
0.0
 30
0.0
  0
VERTEX
  5
2FC9
  8
HIDDEN
  6
HIDDEN
 10
54.505513
 20
23.203159
 30
0.0
  0
VERTEX
  5
2FCA
  8
HIDDEN
  6
HIDDEN
 10
54.505513
 20
22.433924
 30
0.0
  0
VERTEX
  5
2FCB
  8
HIDDEN
  6
HIDDEN
 10
54.695513
 20
22.433924
 30
0.0
  0
SEQEND
  5
2FCC
  8
HIDDEN
  6
HIDDEN
  0
POLYLINE
  5
13C9
  8
HIDDEN
  6
HIDDEN
 66
     1
 10
0.0
 20
0.0
 30
0.0
  0
VERTEX
  5
2FCD
  8
HIDDEN
  6
HIDDEN
 10
54.695513
 20
22.433924
 30
0.0
  0
VERTEX
  5
2FCE
  8
HIDDEN
  6
HIDDEN
 10
54.695513
 20
23.203159
 30
0.0
  0
SEQEND
  5
2FCF
  8
HIDDEN
  6
HIDDEN
  0
POLYLINE
  5
13CA
  8
HIDDEN
  6
HIDDEN
 66
     1
 10
0.0
 20
0.0
 30
0.0
  0
VERTEX
  5
2FD0
  8
HIDDEN
  6
HIDDEN
 10
54.945513
 20
23.203159
 30
0.0
  0
VERTEX
  5
2FD1
  8
HIDDEN
  6
HIDDEN
 10
54.945513
 20
22.433924
 30
0.0
  0
VERTEX
  5
2FD2
  8
HIDDEN
  6
HIDDEN
 10
55.135513
 20
22.433924
 30
0.0
  0
SEQEND
  5
2FD3
  8
HIDDEN
  6
HIDDEN
  0
POLYLINE
  5
13CB
  8
HIDDEN
  6
HIDDEN
 66
     1
 10
0.0
 20
0.0
 30
0.0
  0
VERTEX
  5
2FD4
  8
HIDDEN
  6
HIDDEN
 10
55.135513
 20
22.433924
 30
0.0
  0
VERTEX
  5
2FD5
  8
HIDDEN
  6
HIDDEN
 10
55.135513
 20
23.203159
 30
0.0
  0
SEQEND
  5
2FD6
  8
HIDDEN
  6
HIDDEN
  0
POLYLINE
  5
13CC
  8
HIDDEN
  6
HIDDEN
 66
     1
 10
0.0
 20
0.0
 30
0.0
  0
VERTEX
  5
2FD7
  8
HIDDEN
  6
HIDDEN
 10
55.385513
 20
23.203159
 30
0.0
  0
VERTEX
  5
2FD8
  8
HIDDEN
  6
HIDDEN
 10
55.385513
 20
22.433924
 30
0.0
  0
VERTEX
  5
2FD9
  8
HIDDEN
  6
HIDDEN
 10
55.575513
 20
22.433924
 30
0.0
  0
SEQEND
  5
2FDA
  8
HIDDEN
  6
HIDDEN
  0
POLYLINE
  5
13CD
  8
HIDDEN
  6
HIDDEN
 66
     1
 10
0.0
 20
0.0
 30
0.0
  0
VERTEX
  5
2FDB
  8
HIDDEN
  6
HIDDEN
 10
55.575513
 20
22.433924
 30
0.0
  0
VERTEX
  5
2FDC
  8
HIDDEN
  6
HIDDEN
 10
55.575513
 20
23.203159
 30
0.0
  0
SEQEND
  5
2FDD
  8
HIDDEN
  6
HIDDEN
  0
LINE
  5
13CE
  8
CENTERLINE
  6
CONTINUOUS
 10
55.079618
 20
21.517834
 30
0.0
 11
55.079618
 21
22.237834
 31
0.0
  0
POLYLINE
  5
13CF
  8
0
 66
     1
 10
0.0
 20
0.0
 30
0.0
  0
VERTEX
  5
2FDE
  8
0
 10
54.255513
 20
23.433924
 30
0.0
  0
VERTEX
  5
2FDF
  8
0
 10
54.255513
 20
23.683924
 30
0.0
  0
VERTEX
  5
2FE0
  8
0
 10
54.065513
 20
23.683924
 30
0.0
  0
VERTEX
  5
2FE1
  8
0
 10
54.065513
 20
23.433924
 30
0.0
  0
SEQEND
  5
2FE2
  8
0
  0
POLYLINE
  5
13D0
  8
0
 66
     1
 10
0.0
 20
0.0
 30
0.0
  0
VERTEX
  5
2FE3
  8
0
 10
53.815513
 20
23.433924
 30
0.0
  0
VERTEX
  5
2FE4
  8
0
 10
53.815513
 20
23.683924
 30
0.0
  0
VERTEX
  5
2FE5
  8
0
 10
53.625513
 20
23.683924
 30
0.0
  0
VERTEX
  5
2FE6
  8
0
 10
53.625513
 20
23.433924
 30
0.0
  0
SEQEND
  5
2FE7
  8
0
  0
POLYLINE
  5
13D1
  8
0
 66
     1
 10
0.0
 20
0.0
 30
0.0
  0
VERTEX
  5
2FE8
  8
0
 10
54.695513
 20
23.433924
 30
0.0
  0
VERTEX
  5
2FE9
  8
0
 10
54.695513
 20
23.683924
 30
0.0
  0
VERTEX
  5
2FEA
  8
0
 10
54.505513
 20
23.683924
 30
0.0
  0
VERTEX
  5
2FEB
  8
0
 10
54.505513
 20
23.433924
 30
0.0
  0
SEQEND
  5
2FEC
  8
0
  0
POLYLINE
  5
13D2
  8
0
 66
     1
 10
0.0
 20
0.0
 30
0.0
  0
VERTEX
  5
2FED
  8
0
 10
55.135513
 20
23.433924
 30
0.0
  0
VERTEX
  5
2FEE
  8
0
 10
55.135513
 20
23.683924
 30
0.0
  0
VERTEX
  5
2FEF
  8
0
 10
54.945513
 20
23.683924
 30
0.0
  0
VERTEX
  5
2FF0
  8
0
 10
54.945513
 20
23.433924
 30
0.0
  0
SEQEND
  5
2FF1
  8
0
  0
POLYLINE
  5
13D3
  8
0
 66
     1
 10
0.0
 20
0.0
 30
0.0
  0
VERTEX
  5
2FF2
  8
0
 10
55.575513
 20
23.433924
 30
0.0
  0
VERTEX
  5
2FF3
  8
0
 10
55.575513
 20
23.683924
 30
0.0
  0
VERTEX
  5
2FF4
  8
0
 10
55.385513
 20
23.683924
 30
0.0
  0
VERTEX
  5
2FF5
  8
0
 10
55.385513
 20
23.433924
 30
0.0
  0
SEQEND
  5
2FF6
  8
0
  0
POLYLINE
  5
13D5
  8
0
 66
     1
 10
0.0
 20
0.0
 30
0.0
 70
     1
  0
VERTEX
  5
2FF7
  8
0
 10
48.975513
 20
29.183924
 30
0.0
  0
VERTEX
  5
2FF8
  8
0
 10
48.975513
 20
30.433924
 30
0.0
  0
VERTEX
  5
2FF9
  8
0
 10
48.785513
 20
30.433924
 30
0.0
  0
VERTEX
  5
2FFA
  8
0
 10
48.785513
 20
29.183924
 30
0.0
  0
SEQEND
  5
2FFB
  8
0
  0
POLYLINE
  5
13D6
  8
0
 66
     1
 10
0.0
 20
0.0
 30
0.0
 70
     1
  0
VERTEX
  5
2FFC
  8
0
 10
48.535513
 20
29.183924
 30
0.0
  0
VERTEX
  5
2FFD
  8
0
 10
48.535513
 20
30.433924
 30
0.0
  0
VERTEX
  5
2FFE
  8
0
 10
48.345513
 20
30.433924
 30
0.0
  0
VERTEX
  5
2FFF
  8
0
 10
48.345513
 20
29.183924
 30
0.0
  0
SEQEND
  5
3000
  8
0
  0
POLYLINE
  5
13D7
  8
0
 66
     1
 10
0.0
 20
0.0
 30
0.0
 70
     1
  0
VERTEX
  5
3001
  8
0
 10
49.415513
 20
29.183924
 30
0.0
  0
VERTEX
  5
3002
  8
0
 10
49.415513
 20
30.433924
 30
0.0
  0
VERTEX
  5
3003
  8
0
 10
49.225513
 20
30.433924
 30
0.0
  0
VERTEX
  5
3004
  8
0
 10
49.225513
 20
29.183924
 30
0.0
  0
SEQEND
  5
3005
  8
0
  0
POLYLINE
  5
13D8
  8
0
 66
     1
 10
0.0
 20
0.0
 30
0.0
 70
     1
  0
VERTEX
  5
3006
  8
0
 10
49.855513
 20
29.183924
 30
0.0
  0
VERTEX
  5
3007
  8
0
 10
49.855513
 20
30.433924
 30
0.0
  0
VERTEX
  5
3008
  8
0
 10
49.665513
 20
30.433924
 30
0.0
  0
VERTEX
  5
3009
  8
0
 10
49.665513
 20
29.183924
 30
0.0
  0
SEQEND
  5
300A
  8
0
  0
POLYLINE
  5
13D9
  8
0
 66
     1
 10
0.0
 20
0.0
 30
0.0
 70
     1
  0
VERTEX
  5
300B
  8
0
 10
51.175513
 20
29.183924
 30
0.0
  0
VERTEX
  5
300C
  8
0
 10
51.175513
 20
30.433924
 30
0.0
  0
VERTEX
  5
300D
  8
0
 10
50.985513
 20
30.433924
 30
0.0
  0
VERTEX
  5
300E
  8
0
 10
50.985513
 20
29.183924
 30
0.0
  0
SEQEND
  5
300F
  8
0
  0
POLYLINE
  5
13DA
  8
0
 66
     1
 10
0.0
 20
0.0
 30
0.0
 70
     1
  0
VERTEX
  5
3010
  8
0
 10
50.735513
 20
29.183924
 30
0.0
  0
VERTEX
  5
3011
  8
0
 10
50.735513
 20
30.433924
 30
0.0
  0
VERTEX
  5
3012
  8
0
 10
50.545513
 20
30.433924
 30
0.0
  0
VERTEX
  5
3013
  8
0
 10
50.545513
 20
29.183924
 30
0.0
  0
SEQEND
  5
3014
  8
0
  0
POLYLINE
  5
13DB
  8
0
 66
     1
 10
0.0
 20
0.0
 30
0.0
 70
     1
  0
VERTEX
  5
3015
  8
0
 10
50.295513
 20
29.183924
 30
0.0
  0
VERTEX
  5
3016
  8
0
 10
50.295513
 20
30.433924
 30
0.0
  0
VERTEX
  5
3017
  8
0
 10
50.105513
 20
30.433924
 30
0.0
  0
VERTEX
  5
3018
  8
0
 10
50.105513
 20
29.183924
 30
0.0
  0
SEQEND
  5
3019
  8
0
  0
LINE
  5
13DD
  8
0
 10
47.192376
 20
32.404933
 30
0.0
 11
47.192376
 21
32.162197
 31
0.0
  0
LINE
  5
13DE
  8
0
 10
46.867101
 20
32.434705
 30
0.0
 11
46.867101
 21
32.1572
 31
0.0
  0
LINE
  5
13DF
  8
CENTERLINE
  6
CONTINUOUS
 10
47.031101
 20
32.074705
 30
0.0
 11
47.031101
 21
32.794705
 31
0.0
  0
LINE
  5
13E0
  8
CENTERLINE
  6
CONTINUOUS
 10
47.031101
 20
31.574705
 30
0.0
 11
47.031101
 21
32.294705
 31
0.0
  0
ARC
  5
13E1
  8
0
 10
47.031101
 20
31.934705
 30
0.0
 40
0.22
 50
151.745198
 51
28.948703
  0
ARC
  5
13E2
  8
0
 10
47.442376
 20
32.162197
 30
0.0
 40
0.25
 50
180.0
 51
208.948703
  0
ARC
  5
13E3
  8
0
 10
46.617101
 20
32.1572
 30
0.0
 40
0.25
 50
331.745198
 51
0.0
  0
ARC
  5
13E4
  8
0
 10
47.031101
 20
32.434705
 30
0.0
 40
0.164
 50
349.54091
 51
180.0
  0
CIRCLE
  5
13E5
  8
0
 10
50.281313
 20
32.434705
 30
0.0
 40
0.155
  0
LINE
  5
13E6
  8
CENTERLINE
  6
CONTINUOUS
 10
49.813313
 20
32.434705
 30
0.0
 11
50.749313
 21
32.434705
 31
0.0
  0
LINE
  5
13E7
  8
CENTERLINE
  6
CONTINUOUS
 10
50.281313
 20
31.966705
 30
0.0
 11
50.281313
 21
32.902705
 31
0.0
  0
POLYLINE
  5
13E8
  8
0
 66
     1
 10
0.0
 20
0.0
 30
0.0
 70
     1
  0
VERTEX
  5
301A
  8
0
 10
51.615513
 20
29.183924
 30
0.0
  0
VERTEX
  5
301B
  8
0
 10
51.615513
 20
30.433924
 30
0.0
  0
VERTEX
  5
301C
  8
0
 10
51.425513
 20
30.433924
 30
0.0
  0
VERTEX
  5
301D
  8
0
 10
51.425513
 20
29.183924
 30
0.0
  0
SEQEND
  5
301E
  8
0
  0
POLYLINE
  5
13E9
  8
0
 66
     1
 10
0.0
 20
0.0
 30
0.0
 70
     1
  0
VERTEX
  5
301F
  8
0
 10
53.375513
 20
29.183924
 30
0.0
  0
VERTEX
  5
3020
  8
0
 10
53.375513
 20
30.433924
 30
0.0
  0
VERTEX
  5
3021
  8
0
 10
53.185513
 20
30.433924
 30
0.0
  0
VERTEX
  5
3022
  8
0
 10
53.185513
 20
29.183924
 30
0.0
  0
SEQEND
  5
3023
  8
0
  0
POLYLINE
  5
13EA
  8
0
 66
     1
 10
0.0
 20
0.0
 30
0.0
 70
     1
  0
VERTEX
  5
3024
  8
0
 10
52.935513
 20
29.183924
 30
0.0
  0
VERTEX
  5
3025
  8
0
 10
52.935513
 20
30.433924
 30
0.0
  0
VERTEX
  5
3026
  8
0
 10
52.745513
 20
30.433924
 30
0.0
  0
VERTEX
  5
3027
  8
0
 10
52.745513
 20
29.183924
 30
0.0
  0
SEQEND
  5
3028
  8
0
  0
POLYLINE
  5
13EB
  8
0
 66
     1
 10
0.0
 20
0.0
 30
0.0
 70
     1
  0
VERTEX
  5
3029
  8
0
 10
52.495513
 20
29.183924
 30
0.0
  0
VERTEX
  5
302A
  8
0
 10
52.495513
 20
30.433924
 30
0.0
  0
VERTEX
  5
302B
  8
0
 10
52.305513
 20
30.433924
 30
0.0
  0
VERTEX
  5
302C
  8
0
 10
52.305513
 20
29.183924
 30
0.0
  0
SEQEND
  5
302D
  8
0
  0
POLYLINE
  5
13EC
  8
0
 66
     1
 10
0.0
 20
0.0
 30
0.0
 70
     1
  0
VERTEX
  5
302E
  8
0
 10
52.055513
 20
29.183924
 30
0.0
  0
VERTEX
  5
302F
  8
0
 10
52.055513
 20
30.433924
 30
0.0
  0
VERTEX
  5
3030
  8
0
 10
51.865513
 20
30.433924
 30
0.0
  0
VERTEX
  5
3031
  8
0
 10
51.865513
 20
29.183924
 30
0.0
  0
SEQEND
  5
3032
  8
0
  0
POLYLINE
  5
13ED
  8
0
 66
     1
 10
0.0
 20
0.0
 30
0.0
 70
     1
  0
VERTEX
  5
3033
  8
0
 10
55.575513
 20
29.183924
 30
0.0
  0
VERTEX
  5
3034
  8
0
 10
55.575513
 20
30.433924
 30
0.0
  0
VERTEX
  5
3035
  8
0
 10
55.385513
 20
30.433924
 30
0.0
  0
VERTEX
  5
3036
  8
0
 10
55.385513
 20
29.183924
 30
0.0
  0
SEQEND
  5
3037
  8
0
  0
POLYLINE
  5
13EE
  8
0
 66
     1
 10
0.0
 20
0.0
 30
0.0
 70
     1
  0
VERTEX
  5
3038
  8
0
 10
55.135513
 20
29.183924
 30
0.0
  0
VERTEX
  5
3039
  8
0
 10
55.135513
 20
30.433924
 30
0.0
  0
VERTEX
  5
303A
  8
0
 10
54.945513
 20
30.433924
 30
0.0
  0
VERTEX
  5
303B
  8
0
 10
54.945513
 20
29.183924
 30
0.0
  0
SEQEND
  5
303C
  8
0
  0
POLYLINE
  5
13EF
  8
0
 66
     1
 10
0.0
 20
0.0
 30
0.0
 70
     1
  0
VERTEX
  5
303D
  8
0
 10
54.695513
 20
29.183924
 30
0.0
  0
VERTEX
  5
303E
  8
0
 10
54.695513
 20
30.433924
 30
0.0
  0
VERTEX
  5
303F
  8
0
 10
54.505513
 20
30.433924
 30
0.0
  0
VERTEX
  5
3040
  8
0
 10
54.505513
 20
29.183924
 30
0.0
  0
SEQEND
  5
3041
  8
0
  0
POLYLINE
  5
13F0
  8
0
 66
     1
 10
0.0
 20
0.0
 30
0.0
 70
     1
  0
VERTEX
  5
3042
  8
0
 10
54.255513
 20
29.183924
 30
0.0
  0
VERTEX
  5
3043
  8
0
 10
54.255513
 20
30.433924
 30
0.0
  0
VERTEX
  5
3044
  8
0
 10
54.065513
 20
30.433924
 30
0.0
  0
VERTEX
  5
3045
  8
0
 10
54.065513
 20
29.183924
 30
0.0
  0
SEQEND
  5
3046
  8
0
  0
POLYLINE
  5
13F1
  8
0
 66
     1
 10
0.0
 20
0.0
 30
0.0
 70
     1
  0
VERTEX
  5
3047
  8
0
 10
53.815513
 20
29.183924
 30
0.0
  0
VERTEX
  5
3048
  8
0
 10
53.815513
 20
30.433924
 30
0.0
  0
VERTEX
  5
3049
  8
0
 10
53.625513
 20
30.433924
 30
0.0
  0
VERTEX
  5
304A
  8
0
 10
53.625513
 20
29.183924
 30
0.0
  0
SEQEND
  5
304B
  8
0
  0
LINE
  5
13F2
  8
0
 10
60.708722
 20
22.08716
 30
0.0
 11
60.708722
 21
33.789705
 31
0.0
  0
LINE
  5
13F3
  8
0
 10
60.778722
 20
22.08716
 30
0.0
 11
60.778722
 21
33.789705
 31
0.0
  0
LINE
  5
13F7
  8
CENTERLINE
  6
CONTINUOUS
 10
59.528134
 20
23.966705
 30
0.0
 11
59.528134
 21
24.902705
 31
0.0
  0
CIRCLE
  5
13F8
  8
0
 10
59.528134
 20
24.434705
 30
0.0
 40
0.164
  0
POLYLINE
  5
13F9
  8
0
 66
     1
 10
0.0
 20
0.0
 30
0.0
  0
VERTEX
  5
304C
  8
0
 10
58.215513
 20
23.433924
 30
0.0
  0
VERTEX
  5
304D
  8
0
 10
58.215513
 20
23.683924
 30
0.0
  0
VERTEX
  5
304E
  8
0
 10
58.025513
 20
23.683924
 30
0.0
  0
VERTEX
  5
304F
  8
0
 10
58.025513
 20
23.433924
 30
0.0
  0
SEQEND
  5
3050
  8
0
  0
POLYLINE
  5
13FA
  8
HIDDEN
  6
HIDDEN
 66
     1
 10
0.0
 20
0.0
 30
0.0
  0
VERTEX
  5
3051
  8
HIDDEN
  6
HIDDEN
 10
58.025513
 20
23.203159
 30
0.0
  0
VERTEX
  5
3052
  8
HIDDEN
  6
HIDDEN
 10
58.025513
 20
22.433924
 30
0.0
  0
VERTEX
  5
3053
  8
HIDDEN
  6
HIDDEN
 10
58.215513
 20
22.433924
 30
0.0
  0
SEQEND
  5
3054
  8
HIDDEN
  6
HIDDEN
  0
POLYLINE
  5
13FB
  8
HIDDEN
  6
HIDDEN
 66
     1
 10
0.0
 20
0.0
 30
0.0
  0
VERTEX
  5
3055
  8
HIDDEN
  6
HIDDEN
 10
56.015513
 20
22.433924
 30
0.0
  0
VERTEX
  5
3056
  8
HIDDEN
  6
HIDDEN
 10
56.015513
 20
23.203159
 30
0.0
  0
SEQEND
  5
3057
  8
HIDDEN
  6
HIDDEN
  0
POLYLINE
  5
13FC
  8
HIDDEN
  6
HIDDEN
 66
     1
 10
0.0
 20
0.0
 30
0.0
  0
VERTEX
  5
3058
  8
HIDDEN
  6
HIDDEN
 10
56.265513
 20
23.203159
 30
0.0
  0
VERTEX
  5
3059
  8
HIDDEN
  6
HIDDEN
 10
56.265513
 20
22.433924
 30
0.0
  0
VERTEX
  5
305A
  8
HIDDEN
  6
HIDDEN
 10
56.455513
 20
22.433924
 30
0.0
  0
SEQEND
  5
305B
  8
HIDDEN
  6
HIDDEN
  0
POLYLINE
  5
13FD
  8
HIDDEN
  6
HIDDEN
 66
     1
 10
0.0
 20
0.0
 30
0.0
  0
VERTEX
  5
305C
  8
HIDDEN
  6
HIDDEN
 10
56.455513
 20
22.433924
 30
0.0
  0
VERTEX
  5
305D
  8
HIDDEN
  6
HIDDEN
 10
56.455513
 20
23.203159
 30
0.0
  0
SEQEND
  5
305E
  8
HIDDEN
  6
HIDDEN
  0
POLYLINE
  5
13FE
  8
HIDDEN
  6
HIDDEN
 66
     1
 10
0.0
 20
0.0
 30
0.0
  0
VERTEX
  5
305F
  8
HIDDEN
  6
HIDDEN
 10
56.705513
 20
23.203159
 30
0.0
  0
VERTEX
  5
3060
  8
HIDDEN
  6
HIDDEN
 10
56.705513
 20
22.433924
 30
0.0
  0
VERTEX
  5
3061
  8
HIDDEN
  6
HIDDEN
 10
56.895513
 20
22.433924
 30
0.0
  0
SEQEND
  5
3062
  8
HIDDEN
  6
HIDDEN
  0
POLYLINE
  5
13FF
  8
HIDDEN
  6
HIDDEN
 66
     1
 10
0.0
 20
0.0
 30
0.0
  0
VERTEX
  5
3063
  8
HIDDEN
  6
HIDDEN
 10
56.895513
 20
22.433924
 30
0.0
  0
VERTEX
  5
3064
  8
HIDDEN
  6
HIDDEN
 10
56.895513
 20
23.203159
 30
0.0
  0
SEQEND
  5
3065
  8
HIDDEN
  6
HIDDEN
  0
POLYLINE
  5
1400
  8
HIDDEN
  6
HIDDEN
 66
     1
 10
0.0
 20
0.0
 30
0.0
  0
VERTEX
  5
3066
  8
HIDDEN
  6
HIDDEN
 10
57.145513
 20
23.203159
 30
0.0
  0
VERTEX
  5
3067
  8
HIDDEN
  6
HIDDEN
 10
57.145513
 20
22.433924
 30
0.0
  0
VERTEX
  5
3068
  8
HIDDEN
  6
HIDDEN
 10
57.335513
 20
22.433924
 30
0.0
  0
SEQEND
  5
3069
  8
HIDDEN
  6
HIDDEN
  0
POLYLINE
  5
1401
  8
HIDDEN
  6
HIDDEN
 66
     1
 10
0.0
 20
0.0
 30
0.0
  0
VERTEX
  5
306A
  8
HIDDEN
  6
HIDDEN
 10
57.335513
 20
22.433924
 30
0.0
  0
VERTEX
  5
306B
  8
HIDDEN
  6
HIDDEN
 10
57.335513
 20
23.203159
 30
0.0
  0
SEQEND
  5
306C
  8
HIDDEN
  6
HIDDEN
  0
POLYLINE
  5
1402
  8
HIDDEN
  6
HIDDEN
 66
     1
 10
0.0
 20
0.0
 30
0.0
  0
VERTEX
  5
306D
  8
HIDDEN
  6
HIDDEN
 10
57.775513
 20
22.433924
 30
0.0
  0
VERTEX
  5
306E
  8
HIDDEN
  6
HIDDEN
 10
57.775513
 20
23.203159
 30
0.0
  0
SEQEND
  5
306F
  8
HIDDEN
  6
HIDDEN
  0
POLYLINE
  5
1403
  8
HIDDEN
  6
HIDDEN
 66
     1
 10
0.0
 20
0.0
 30
0.0
  0
VERTEX
  5
3070
  8
HIDDEN
  6
HIDDEN
 10
57.585513
 20
23.203159
 30
0.0
  0
VERTEX
  5
3071
  8
HIDDEN
  6
HIDDEN
 10
57.585513
 20
22.433924
 30
0.0
  0
VERTEX
  5
3072
  8
HIDDEN
  6
HIDDEN
 10
57.775513
 20
22.433924
 30
0.0
  0
SEQEND
  5
3073
  8
HIDDEN
  6
HIDDEN
  0
POLYLINE
  5
1404
  8
0
 66
     1
 10
0.0
 20
0.0
 30
0.0
  0
VERTEX
  5
3074
  8
0
 10
56.455513
 20
23.433924
 30
0.0
  0
VERTEX
  5
3075
  8
0
 10
56.455513
 20
23.683924
 30
0.0
  0
VERTEX
  5
3076
  8
0
 10
56.265513
 20
23.683924
 30
0.0
  0
VERTEX
  5
3077
  8
0
 10
56.265513
 20
23.433924
 30
0.0
  0
SEQEND
  5
3078
  8
0
  0
POLYLINE
  5
1405
  8
0
 66
     1
 10
0.0
 20
0.0
 30
0.0
  0
VERTEX
  5
3079
  8
0
 10
56.895513
 20
23.433924
 30
0.0
  0
VERTEX
  5
307A
  8
0
 10
56.895513
 20
23.683924
 30
0.0
  0
VERTEX
  5
307B
  8
0
 10
56.705513
 20
23.683924
 30
0.0
  0
VERTEX
  5
307C
  8
0
 10
56.705513
 20
23.433924
 30
0.0
  0
SEQEND
  5
307D
  8
0
  0
POLYLINE
  5
1406
  8
0
 66
     1
 10
0.0
 20
0.0
 30
0.0
  0
VERTEX
  5
307E
  8
0
 10
57.775513
 20
23.433924
 30
0.0
  0
VERTEX
  5
307F
  8
0
 10
57.775513
 20
23.683924
 30
0.0
  0
VERTEX
  5
3080
  8
0
 10
57.585513
 20
23.683924
 30
0.0
  0
VERTEX
  5
3081
  8
0
 10
57.585513
 20
23.433924
 30
0.0
  0
SEQEND
  5
3082
  8
0
  0
POLYLINE
  5
1407
  8
0
 66
     1
 10
0.0
 20
0.0
 30
0.0
  0
VERTEX
  5
3083
  8
0
 10
57.335513
 20
23.433924
 30
0.0
  0
VERTEX
  5
3084
  8
0
 10
57.335513
 20
23.683924
 30
0.0
  0
VERTEX
  5
3085
  8
0
 10
57.145513
 20
23.683924
 30
0.0
  0
VERTEX
  5
3086
  8
0
 10
57.145513
 20
23.433924
 30
0.0
  0
SEQEND
  5
3087
  8
0
  0
POLYLINE
  5
1408
  8
HIDDEN
  6
HIDDEN
 66
     1
 10
0.0
 20
0.0
 30
0.0
  0
VERTEX
  5
3088
  8
HIDDEN
  6
HIDDEN
 10
58.655513
 20
22.433924
 30
0.0
  0
VERTEX
  5
3089
  8
HIDDEN
  6
HIDDEN
 10
58.655513
 20
23.203159
 30
0.0
  0
SEQEND
  5
308A
  8
HIDDEN
  6
HIDDEN
  0
POLYLINE
  5
1409
  8
HIDDEN
  6
HIDDEN
 66
     1
 10
0.0
 20
0.0
 30
0.0
  0
VERTEX
  5
308B
  8
HIDDEN
  6
HIDDEN
 10
58.465513
 20
23.203159
 30
0.0
  0
VERTEX
  5
308C
  8
HIDDEN
  6
HIDDEN
 10
58.465513
 20
22.433924
 30
0.0
  0
VERTEX
  5
308D
  8
HIDDEN
  6
HIDDEN
 10
58.655513
 20
22.433924
 30
0.0
  0
SEQEND
  5
308E
  8
HIDDEN
  6
HIDDEN
  0
POLYLINE
  5
140A
  8
HIDDEN
  6
HIDDEN
 66
     1
 10
0.0
 20
0.0
 30
0.0
  0
VERTEX
  5
308F
  8
HIDDEN
  6
HIDDEN
 10
58.215513
 20
22.433924
 30
0.0
  0
VERTEX
  5
3090
  8
HIDDEN
  6
HIDDEN
 10
58.215513
 20
23.203159
 30
0.0
  0
SEQEND
  5
3091
  8
HIDDEN
  6
HIDDEN
  0
LINE
  5
140B
  8
CENTERLINE
  6
CONTINUOUS
 10
60.028722
 20
21.46983
 30
0.0
 11
60.028722
 21
22.407158
 31
0.0
  0
CIRCLE
  5
140C
  8
0
 10
58.778722
 20
22.933924
 30
0.0
 40
0.068
  0
LINE
  5
140D
  8
CENTERLINE
  6
CONTINUOUS
 10
58.418722
 20
22.933924
 30
0.0
 11
59.138722
 21
22.933924
 31
0.0
  0
LINE
  5
140E
  8
CENTERLINE
  6
CONTINUOUS
 10
58.778722
 20
22.573924
 30
0.0
 11
58.778722
 21
23.293924
 31
0.0
  0
POLYLINE
  5
140F
  8
0
 66
     1
 10
0.0
 20
0.0
 30
0.0
  0
VERTEX
  5
3092
  8
0
 10
58.655513
 20
23.433924
 30
0.0
  0
VERTEX
  5
3093
  8
0
 10
58.655513
 20
23.683924
 30
0.0
  0
VERTEX
  5
3094
  8
0
 10
58.465513
 20
23.683924
 30
0.0
  0
VERTEX
  5
3095
  8
0
 10
58.465513
 20
23.433924
 30
0.0
  0
SEQEND
  5
3096
  8
0
  0
LINE
  5
1410
  8
CENTERLINE
  6
CONTINUOUS
 10
56.281313
 20
26.716705
 30
0.0
 11
56.281313
 21
27.652705
 31
0.0
  0
CIRCLE
  5
1411
  8
0
 10
56.281313
 20
27.184705
 30
0.0
 40
0.155
  0
LINE
  5
1412
  8
CENTERLINE
  6
CONTINUOUS
 10
59.060134
 20
24.434705
 30
0.0
 11
59.996134
 21
24.434705
 31
0.0
  0
LINE
  5
1413
  8
0
 10
60.625485
 20
21.933924
 30
0.0
 11
60.625485
 21
23.433924
 31
0.0
  0
ARC
  5
1414
  8
0
 10
60.618722
 20
22.093924
 30
0.0
 40
0.090254
 50
270.0
 51
0.0
  0
ARC
  5
1415
  8
0
 10
60.618722
 20
22.093924
 30
0.0
 40
0.160143
 50
270.0
 51
0.0
  0
LINE
  5
1416
  8
0
 10
60.708722
 20
23.433924
 30
0.0
 11
60.778722
 21
23.433924
 31
0.0
  0
POLYLINE
  5
1418
  8
0
 66
     1
 10
0.0
 20
0.0
 30
0.0
 70
     1
  0
VERTEX
  5
3097
  8
0
 10
58.215513
 20
29.183924
 30
0.0
  0
VERTEX
  5
3098
  8
0
 10
58.215513
 20
30.433924
 30
0.0
  0
VERTEX
  5
3099
  8
0
 10
58.025513
 20
30.433924
 30
0.0
  0
VERTEX
  5
309A
  8
0
 10
58.025513
 20
29.183924
 30
0.0
  0
SEQEND
  5
309B
  8
0
  0
POLYLINE
  5
1419
  8
0
 66
     1
 10
0.0
 20
0.0
 30
0.0
 70
     1
  0
VERTEX
  5
309C
  8
0
 10
56.895513
 20
29.183924
 30
0.0
  0
VERTEX
  5
309D
  8
0
 10
56.895513
 20
30.433924
 30
0.0
  0
VERTEX
  5
309E
  8
0
 10
56.705513
 20
30.433924
 30
0.0
  0
VERTEX
  5
309F
  8
0
 10
56.705513
 20
29.183924
 30
0.0
  0
SEQEND
  5
30A0
  8
0
  0
POLYLINE
  5
141A
  8
0
 66
     1
 10
0.0
 20
0.0
 30
0.0
 70
     1
  0
VERTEX
  5
30A1
  8
0
 10
56.455513
 20
29.183924
 30
0.0
  0
VERTEX
  5
30A2
  8
0
 10
56.455513
 20
30.433924
 30
0.0
  0
VERTEX
  5
30A3
  8
0
 10
56.265513
 20
30.433924
 30
0.0
  0
VERTEX
  5
30A4
  8
0
 10
56.265513
 20
29.183924
 30
0.0
  0
SEQEND
  5
30A5
  8
0
  0
POLYLINE
  5
141B
  8
0
 66
     1
 10
0.0
 20
0.0
 30
0.0
 70
     1
  0
VERTEX
  5
30A6
  8
0
 10
57.335513
 20
29.183924
 30
0.0
  0
VERTEX
  5
30A7
  8
0
 10
57.335513
 20
30.433924
 30
0.0
  0
VERTEX
  5
30A8
  8
0
 10
57.145513
 20
30.433924
 30
0.0
  0
VERTEX
  5
30A9
  8
0
 10
57.145513
 20
29.183924
 30
0.0
  0
SEQEND
  5
30AA
  8
0
  0
POLYLINE
  5
141C
  8
0
 66
     1
 10
0.0
 20
0.0
 30
0.0
 70
     1
  0
VERTEX
  5
30AB
  8
0
 10
57.775513
 20
29.183924
 30
0.0
  0
VERTEX
  5
30AC
  8
0
 10
57.775513
 20
30.433924
 30
0.0
  0
VERTEX
  5
30AD
  8
0
 10
57.585513
 20
30.433924
 30
0.0
  0
VERTEX
  5
30AE
  8
0
 10
57.585513
 20
29.183924
 30
0.0
  0
SEQEND
  5
30AF
  8
0
  0
POLYLINE
  5
141D
  8
0
 66
     1
 10
0.0
 20
0.0
 30
0.0
 70
     1
  0
VERTEX
  5
30B0
  8
0
 10
58.655513
 20
29.183924
 30
0.0
  0
VERTEX
  5
30B1
  8
0
 10
58.655513
 20
30.433924
 30
0.0
  0
VERTEX
  5
30B2
  8
0
 10
58.465513
 20
30.433924
 30
0.0
  0
VERTEX
  5
30B3
  8
0
 10
58.465513
 20
29.183924
 30
0.0
  0
SEQEND
  5
30B4
  8
0
  0
LINE
  5
141F
  8
CENTERLINE
  6
CONTINUOUS
 10
56.281313
 20
31.966705
 30
0.0
 11
56.281313
 21
32.902705
 31
0.0
  0
CIRCLE
  5
1420
  8
0
 10
56.281313
 20
32.434705
 30
0.0
 40
0.155
  0
ARC
  5
1421
  8
0
 10
59.528134
 20
31.934705
 30
0.0
 40
0.22
 50
151.745198
 51
28.948703
  0
ARC
  5
1422
  8
0
 10
59.114134
 20
32.1572
 30
0.0
 40
0.25
 50
331.745198
 51
0.0
  0
LINE
  5
1423
  8
CENTERLINE
  6
CONTINUOUS
 10
59.168134
 20
32.434705
 30
0.0
 11
59.888134
 21
32.434705
 31
0.0
  0
LINE
  5
1424
  8
CENTERLINE
  6
CONTINUOUS
 10
59.168134
 20
31.934705
 30
0.0
 11
59.888134
 21
31.934705
 31
0.0
  0
LINE
  5
1425
  8
0
 10
59.364134
 20
32.434705
 30
0.0
 11
59.364134
 21
32.1572
 31
0.0
  0
LINE
  5
1426
  8
0
 10
59.689409
 20
32.404933
 30
0.0
 11
59.689409
 21
32.162197
 31
0.0
  0
LINE
  5
1427
  8
CENTERLINE
  6
CONTINUOUS
 10
59.528134
 20
32.074705
 30
0.0
 11
59.528134
 21
32.794705
 31
0.0
  0
LINE
  5
1428
  8
CENTERLINE
  6
CONTINUOUS
 10
59.528134
 20
31.574705
 30
0.0
 11
59.528134
 21
32.294705
 31
0.0
  0
ARC
  5
1429
  8
0
 10
59.939409
 20
32.162197
 30
0.0
 40
0.25
 50
180.0
 51
208.948703
  0
ARC
  5
142A
  8
0
 10
59.528134
 20
32.434705
 30
0.0
 40
0.164
 50
349.54091
 51
180.0
  0
LINE
  5
142B
  8
0
 10
60.618722
 20
33.789705
 30
0.0
 11
60.618722
 21
33.929705
 31
0.0
  0
LINE
  5
142C
  8
0
 10
60.618722
 20
33.789705
 30
0.0
 11
60.778722
 21
33.789705
 31
0.0
  0
LINE
  5
142D
  8
0
 10
45.850513
 20
39.774586
 30
0.0
 11
60.708722
 21
39.774586
 31
0.0
  0
LINE
  5
142E
  8
0
 10
45.850513
 20
52.638996
 30
0.0
 11
60.708722
 21
52.638996
 31
0.0
  0
LINE
  5
142F
  8
0
 10
45.780513
 20
52.708996
 30
0.0
 11
60.778722
 21
52.708996
 31
0.0
  0
LINE
  5
1430
  8
0
 10
45.780513
 20
39.704586
 30
0.0
 11
60.778722
 21
39.704586
 31
0.0
  0
CIRCLE
  5
1431
  8
0
 10
46.528722
 20
48.458996
 30
0.0
 40
0.22
  0
CIRCLE
  5
1432
  8
0
 10
46.528722
 20
42.458996
 30
0.0
 40
0.22
  0
LINE
  5
1433
  8
CENTERLINE
  6
CONTINUOUS
 10
45.988722
 20
48.458996
 30
0.0
 11
47.068722
 21
48.458996
 31
0.0
  0
LINE
  5
1434
  8
CENTERLINE
  6
CONTINUOUS
 10
45.988722
 20
42.458996
 30
0.0
 11
47.068722
 21
42.458996
 31
0.0
  0
LINE
  5
1435
  8
0
 10
45.780513
 20
51.708996
 30
0.0
 11
60.778722
 21
51.708996
 31
0.0
  0
TEXT
  5
143A
  8
DIMENSION
 10
46.615929
 20
48.541276
 30
0.0
 40
0.333325
  1
"A"
 41
0.8
  7
MASTER
  0
TEXT
  5
143B
  8
DIMENSION
 10
46.540908
 20
42.639115
 30
0.0
 40
0.333325
  1
"A"
 41
0.8
  7
MASTER
  0
LINE
  5
143F
  8
0
 10
45.850513
 20
52.638996
 30
0.0
 11
45.850513
 21
39.774586
 31
0.0
  0
LINE
  5
1440
  8
0
 10
45.780513
 20
52.708996
 30
0.0
 11
45.780513
 21
39.704586
 31
0.0
  0
LINE
  5
1449
  8
CENTERLINE
  6
CONTINUOUS
 10
46.528722
 20
41.918996
 30
0.0
 11
46.528722
 21
42.998996
 31
0.0
  0
LINE
  5
144C
  8
CENTERLINE
  6
CONTINUOUS
 10
46.528722
 20
47.918996
 30
0.0
 11
46.528722
 21
48.998996
 31
0.0
  0
LINE
  5
144D
  8
0
 10
60.708722
 20
39.774586
 30
0.0
 11
60.708722
 21
52.638996
 31
0.0
  0
LINE
  5
144E
  8
0
 10
60.778722
 20
39.704586
 30
0.0
 11
60.778722
 21
52.708996
 31
0.0
  0
POLYLINE
  5
144F
  8
0
 66
     1
 10
0.0
 20
0.0
 30
0.0
 70
     1
  0
VERTEX
  5
30B5
  8
0
 10
48.095513
 20
47.208996
 30
0.0
  0
VERTEX
  5
30B6
  8
0
 10
48.095513
 20
48.458996
 30
0.0
  0
VERTEX
  5
30B7
  8
0
 10
47.905513
 20
48.458996
 30
0.0
  0
VERTEX
  5
30B8
  8
0
 10
47.905513
 20
47.208996
 30
0.0
  0
SEQEND
  5
30B9
  8
0
  0
POLYLINE
  5
1450
  8
0
 66
     1
 10
0.0
 20
0.0
 30
0.0
 70
     1
  0
VERTEX
  5
30BA
  8
0
 10
47.655513
 20
47.208996
 30
0.0
  0
VERTEX
  5
30BB
  8
0
 10
47.655513
 20
48.458996
 30
0.0
  0
VERTEX
  5
30BC
  8
0
 10
47.465513
 20
48.458996
 30
0.0
  0
VERTEX
  5
30BD
  8
0
 10
47.465513
 20
47.208996
 30
0.0
  0
SEQEND
  5
30BE
  8
0
  0
POLYLINE
  5
1451
  8
0
 66
     1
 10
0.0
 20
0.0
 30
0.0
 70
     1
  0
VERTEX
  5
30BF
  8
0
 10
48.535513
 20
47.208996
 30
0.0
  0
VERTEX
  5
30C0
  8
0
 10
48.535513
 20
48.458996
 30
0.0
  0
VERTEX
  5
30C1
  8
0
 10
48.345513
 20
48.458996
 30
0.0
  0
VERTEX
  5
30C2
  8
0
 10
48.345513
 20
47.208996
 30
0.0
  0
SEQEND
  5
30C3
  8
0
  0
POLYLINE
  5
1452
  8
0
 66
     1
 10
0.0
 20
0.0
 30
0.0
 70
     1
  0
VERTEX
  5
30C4
  8
0
 10
48.975513
 20
47.208996
 30
0.0
  0
VERTEX
  5
30C5
  8
0
 10
48.975513
 20
48.458996
 30
0.0
  0
VERTEX
  5
30C6
  8
0
 10
48.785513
 20
48.458996
 30
0.0
  0
VERTEX
  5
30C7
  8
0
 10
48.785513
 20
47.208996
 30
0.0
  0
SEQEND
  5
30C8
  8
0
  0
POLYLINE
  5
1453
  8
0
 66
     1
 10
0.0
 20
0.0
 30
0.0
 70
     1
  0
VERTEX
  5
30C9
  8
0
 10
49.415513
 20
47.208996
 30
0.0
  0
VERTEX
  5
30CA
  8
0
 10
49.415513
 20
48.458996
 30
0.0
  0
VERTEX
  5
30CB
  8
0
 10
49.225513
 20
48.458996
 30
0.0
  0
VERTEX
  5
30CC
  8
0
 10
49.225513
 20
47.208996
 30
0.0
  0
SEQEND
  5
30CD
  8
0
  0
POLYLINE
  5
1454
  8
0
 66
     1
 10
0.0
 20
0.0
 30
0.0
 70
     1
  0
VERTEX
  5
30CE
  8
0
 10
49.855513
 20
47.208996
 30
0.0
  0
VERTEX
  5
30CF
  8
0
 10
49.855513
 20
48.458996
 30
0.0
  0
VERTEX
  5
30D0
  8
0
 10
49.665513
 20
48.458996
 30
0.0
  0
VERTEX
  5
30D1
  8
0
 10
49.665513
 20
47.208996
 30
0.0
  0
SEQEND
  5
30D2
  8
0
  0
POLYLINE
  5
1455
  8
0
 66
     1
 10
0.0
 20
0.0
 30
0.0
 70
     1
  0
VERTEX
  5
30D3
  8
0
 10
50.295513
 20
47.208996
 30
0.0
  0
VERTEX
  5
30D4
  8
0
 10
50.295513
 20
48.458996
 30
0.0
  0
VERTEX
  5
30D5
  8
0
 10
50.105513
 20
48.458996
 30
0.0
  0
VERTEX
  5
30D6
  8
0
 10
50.105513
 20
47.208996
 30
0.0
  0
SEQEND
  5
30D7
  8
0
  0
POLYLINE
  5
1456
  8
0
 66
     1
 10
0.0
 20
0.0
 30
0.0
 70
     1
  0
VERTEX
  5
30D8
  8
0
 10
50.735513
 20
47.208996
 30
0.0
  0
VERTEX
  5
30D9
  8
0
 10
50.735513
 20
48.458996
 30
0.0
  0
VERTEX
  5
30DA
  8
0
 10
50.545513
 20
48.458996
 30
0.0
  0
VERTEX
  5
30DB
  8
0
 10
50.545513
 20
47.208996
 30
0.0
  0
SEQEND
  5
30DC
  8
0
  0
POLYLINE
  5
1457
  8
0
 66
     1
 10
0.0
 20
0.0
 30
0.0
 70
     1
  0
VERTEX
  5
30DD
  8
0
 10
52.935513
 20
47.208996
 30
0.0
  0
VERTEX
  5
30DE
  8
0
 10
52.935513
 20
48.458996
 30
0.0
  0
VERTEX
  5
30DF
  8
0
 10
52.745513
 20
48.458996
 30
0.0
  0
VERTEX
  5
30E0
  8
0
 10
52.745513
 20
47.208996
 30
0.0
  0
SEQEND
  5
30E1
  8
0
  0
POLYLINE
  5
1458
  8
0
 66
     1
 10
0.0
 20
0.0
 30
0.0
 70
     1
  0
VERTEX
  5
30E2
  8
0
 10
53.375513
 20
47.208996
 30
0.0
  0
VERTEX
  5
30E3
  8
0
 10
53.375513
 20
48.458996
 30
0.0
  0
VERTEX
  5
30E4
  8
0
 10
53.185513
 20
48.458996
 30
0.0
  0
VERTEX
  5
30E5
  8
0
 10
53.185513
 20
47.208996
 30
0.0
  0
SEQEND
  5
30E6
  8
0
  0
POLYLINE
  5
1459
  8
0
 66
     1
 10
0.0
 20
0.0
 30
0.0
 70
     1
  0
VERTEX
  5
30E7
  8
0
 10
54.255513
 20
47.208996
 30
0.0
  0
VERTEX
  5
30E8
  8
0
 10
54.255513
 20
48.458996
 30
0.0
  0
VERTEX
  5
30E9
  8
0
 10
54.065513
 20
48.458996
 30
0.0
  0
VERTEX
  5
30EA
  8
0
 10
54.065513
 20
47.208996
 30
0.0
  0
SEQEND
  5
30EB
  8
0
  0
POLYLINE
  5
145A
  8
0
 66
     1
 10
0.0
 20
0.0
 30
0.0
 70
     1
  0
VERTEX
  5
30EC
  8
0
 10
53.815513
 20
47.208996
 30
0.0
  0
VERTEX
  5
30ED
  8
0
 10
53.815513
 20
48.458996
 30
0.0
  0
VERTEX
  5
30EE
  8
0
 10
53.625513
 20
48.458996
 30
0.0
  0
VERTEX
  5
30EF
  8
0
 10
53.625513
 20
47.208996
 30
0.0
  0
SEQEND
  5
30F0
  8
0
  0
POLYLINE
  5
145B
  8
0
 66
     1
 10
0.0
 20
0.0
 30
0.0
 70
     1
  0
VERTEX
  5
30F1
  8
0
 10
56.015513
 20
47.208996
 30
0.0
  0
VERTEX
  5
30F2
  8
0
 10
56.015513
 20
48.458996
 30
0.0
  0
VERTEX
  5
30F3
  8
0
 10
55.825513
 20
48.458996
 30
0.0
  0
VERTEX
  5
30F4
  8
0
 10
55.825513
 20
47.208996
 30
0.0
  0
SEQEND
  5
30F5
  8
0
  0
POLYLINE
  5
145C
  8
0
 66
     1
 10
0.0
 20
0.0
 30
0.0
 70
     1
  0
VERTEX
  5
30F6
  8
0
 10
56.455513
 20
47.208996
 30
0.0
  0
VERTEX
  5
30F7
  8
0
 10
56.455513
 20
48.458996
 30
0.0
  0
VERTEX
  5
30F8
  8
0
 10
56.265513
 20
48.458996
 30
0.0
  0
VERTEX
  5
30F9
  8
0
 10
56.265513
 20
47.208996
 30
0.0
  0
SEQEND
  5
30FA
  8
0
  0
POLYLINE
  5
145D
  8
0
 66
     1
 10
0.0
 20
0.0
 30
0.0
 70
     1
  0
VERTEX
  5
30FB
  8
0
 10
56.895513
 20
47.208996
 30
0.0
  0
VERTEX
  5
30FC
  8
0
 10
56.895513
 20
48.458996
 30
0.0
  0
VERTEX
  5
30FD
  8
0
 10
56.705513
 20
48.458996
 30
0.0
  0
VERTEX
  5
30FE
  8
0
 10
56.705513
 20
47.208996
 30
0.0
  0
SEQEND
  5
30FF
  8
0
  0
POLYLINE
  5
145E
  8
0
 66
     1
 10
0.0
 20
0.0
 30
0.0
 70
     1
  0
VERTEX
  5
3100
  8
0
 10
57.335513
 20
47.208996
 30
0.0
  0
VERTEX
  5
3101
  8
0
 10
57.335513
 20
48.458996
 30
0.0
  0
VERTEX
  5
3102
  8
0
 10
57.145513
 20
48.458996
 30
0.0
  0
VERTEX
  5
3103
  8
0
 10
57.145513
 20
47.208996
 30
0.0
  0
SEQEND
  5
3104
  8
0
  0
POLYLINE
  5
145F
  8
0
 66
     1
 10
0.0
 20
0.0
 30
0.0
 70
     1
  0
VERTEX
  5
3105
  8
0
 10
57.775513
 20
47.208996
 30
0.0
  0
VERTEX
  5
3106
  8
0
 10
57.775513
 20
48.458996
 30
0.0
  0
VERTEX
  5
3107
  8
0
 10
57.585513
 20
48.458996
 30
0.0
  0
VERTEX
  5
3108
  8
0
 10
57.585513
 20
47.208996
 30
0.0
  0
SEQEND
  5
3109
  8
0
  0
POLYLINE
  5
1460
  8
0
 66
     1
 10
0.0
 20
0.0
 30
0.0
 70
     1
  0
VERTEX
  5
310A
  8
0
 10
58.215513
 20
47.208996
 30
0.0
  0
VERTEX
  5
310B
  8
0
 10
58.215513
 20
48.458996
 30
0.0
  0
VERTEX
  5
310C
  8
0
 10
58.025513
 20
48.458996
 30
0.0
  0
VERTEX
  5
310D
  8
0
 10
58.025513
 20
47.208996
 30
0.0
  0
SEQEND
  5
310E
  8
0
  0
POLYLINE
  5
1461
  8
0
 66
     1
 10
0.0
 20
0.0
 30
0.0
 70
     1
  0
VERTEX
  5
310F
  8
0
 10
58.655513
 20
47.208996
 30
0.0
  0
VERTEX
  5
3110
  8
0
 10
58.655513
 20
48.458996
 30
0.0
  0
VERTEX
  5
3111
  8
0
 10
58.465513
 20
48.458996
 30
0.0
  0
VERTEX
  5
3112
  8
0
 10
58.465513
 20
47.208996
 30
0.0
  0
SEQEND
  5
3113
  8
0
  0
POLYLINE
  5
1462
  8
0
 66
     1
 10
0.0
 20
0.0
 30
0.0
 70
     1
  0
VERTEX
  5
3114
  8
0
 10
59.095513
 20
47.208996
 30
0.0
  0
VERTEX
  5
3115
  8
0
 10
59.095513
 20
48.458996
 30
0.0
  0
VERTEX
  5
3116
  8
0
 10
58.905513
 20
48.458996
 30
0.0
  0
VERTEX
  5
3117
  8
0
 10
58.905513
 20
47.208996
 30
0.0
  0
SEQEND
  5
3118
  8
0
  0
POLYLINE
  5
1467
  8
0
 66
     1
 10
0.0
 20
0.0
 30
0.0
 70
     1
  0
VERTEX
  5
3119
  8
0
 10
56.015513
 20
40.708996
 30
0.0
  0
VERTEX
  5
311A
  8
0
 10
56.015513
 20
41.958996
 30
0.0
  0
VERTEX
  5
311B
  8
0
 10
55.825513
 20
41.958996
 30
0.0
  0
VERTEX
  5
311C
  8
0
 10
55.825513
 20
40.708996
 30
0.0
  0
SEQEND
  5
311D
  8
0
  0
POLYLINE
  5
1468
  8
0
 66
     1
 10
0.0
 20
0.0
 30
0.0
 70
     1
  0
VERTEX
  5
311E
  8
0
 10
56.015513
 20
43.708996
 30
0.0
  0
VERTEX
  5
311F
  8
0
 10
56.015513
 20
44.958996
 30
0.0
  0
VERTEX
  5
3120
  8
0
 10
55.825513
 20
44.958996
 30
0.0
  0
VERTEX
  5
3121
  8
0
 10
55.825513
 20
43.708996
 30
0.0
  0
SEQEND
  5
3122
  8
0
  0
POLYLINE
  5
146D
  8
0
 66
     1
 10
0.0
 20
0.0
 30
0.0
 70
     1
  0
VERTEX
  5
3123
  8
0
 10
51.479618
 20
44.768996
 30
0.0
  0
VERTEX
  5
3124
  8
0
 10
51.979618
 20
44.768996
 30
0.0
 42
1.0
  0
VERTEX
  5
3125
  8
0
 10
51.979618
 20
45.148996
 30
0.0
  0
VERTEX
  5
3126
  8
0
 10
51.479618
 20
45.148996
 30
0.0
 42
1.0
  0
SEQEND
  5
3127
  8
0
  0
LINE
  5
146E
  8
CENTERLINE
  6
CONTINUOUS
 10
51.119618
 20
43.708996
 30
0.0
 11
51.839618
 21
43.708996
 31
0.0
  0
LINE
  5
146F
  8
CENTERLINE
  6
CONTINUOUS
 10
51.119618
 20
44.958996
 30
0.0
 11
51.839618
 21
44.958996
 31
0.0
  0
POLYLINE
  5
1470
  8
0
 66
     1
 10
0.0
 20
0.0
 30
0.0
 70
     1
  0
VERTEX
  5
3128
  8
0
 10
51.479618
 20
43.518996
 30
0.0
  0
VERTEX
  5
3129
  8
0
 10
51.979618
 20
43.518996
 30
0.0
 42
1.0
  0
VERTEX
  5
312A
  8
0
 10
51.979618
 20
43.898996
 30
0.0
  0
VERTEX
  5
312B
  8
0
 10
51.479618
 20
43.898996
 30
0.0
 42
1.0
  0
SEQEND
  5
312C
  8
0
  0
POLYLINE
  5
1471
  8
0
 66
     1
 10
0.0
 20
0.0
 30
0.0
 70
     1
  0
VERTEX
  5
312D
  8
0
 10
48.095513
 20
43.708996
 30
0.0
  0
VERTEX
  5
312E
  8
0
 10
48.095513
 20
44.958996
 30
0.0
  0
VERTEX
  5
312F
  8
0
 10
47.905513
 20
44.958996
 30
0.0
  0
VERTEX
  5
3130
  8
0
 10
47.905513
 20
43.708996
 30
0.0
  0
SEQEND
  5
3131
  8
0
  0
POLYLINE
  5
1472
  8
0
 66
     1
 10
0.0
 20
0.0
 30
0.0
 70
     1
  0
VERTEX
  5
3132
  8
0
 10
47.655513
 20
43.708996
 30
0.0
  0
VERTEX
  5
3133
  8
0
 10
47.655513
 20
44.958996
 30
0.0
  0
VERTEX
  5
3134
  8
0
 10
47.465513
 20
44.958996
 30
0.0
  0
VERTEX
  5
3135
  8
0
 10
47.465513
 20
43.708996
 30
0.0
  0
SEQEND
  5
3136
  8
0
  0
POLYLINE
  5
1473
  8
0
 66
     1
 10
0.0
 20
0.0
 30
0.0
 70
     1
  0
VERTEX
  5
3137
  8
0
 10
50.735513
 20
43.708996
 30
0.0
  0
VERTEX
  5
3138
  8
0
 10
50.735513
 20
44.958996
 30
0.0
  0
VERTEX
  5
3139
  8
0
 10
50.545513
 20
44.958996
 30
0.0
  0
VERTEX
  5
313A
  8
0
 10
50.545513
 20
43.708996
 30
0.0
  0
SEQEND
  5
313B
  8
0
  0
POLYLINE
  5
1474
  8
0
 66
     1
 10
0.0
 20
0.0
 30
0.0
 70
     1
  0
VERTEX
  5
313C
  8
0
 10
50.295513
 20
43.708996
 30
0.0
  0
VERTEX
  5
313D
  8
0
 10
50.295513
 20
44.958996
 30
0.0
  0
VERTEX
  5
313E
  8
0
 10
50.105513
 20
44.958996
 30
0.0
  0
VERTEX
  5
313F
  8
0
 10
50.105513
 20
43.708996
 30
0.0
  0
SEQEND
  5
3140
  8
0
  0
POLYLINE
  5
1475
  8
0
 66
     1
 10
0.0
 20
0.0
 30
0.0
 70
     1
  0
VERTEX
  5
3141
  8
0
 10
49.855513
 20
43.708996
 30
0.0
  0
VERTEX
  5
3142
  8
0
 10
49.855513
 20
44.958996
 30
0.0
  0
VERTEX
  5
3143
  8
0
 10
49.665513
 20
44.958996
 30
0.0
  0
VERTEX
  5
3144
  8
0
 10
49.665513
 20
43.708996
 30
0.0
  0
SEQEND
  5
3145
  8
0
  0
POLYLINE
  5
1476
  8
0
 66
     1
 10
0.0
 20
0.0
 30
0.0
 70
     1
  0
VERTEX
  5
3146
  8
0
 10
49.415513
 20
43.708996
 30
0.0
  0
VERTEX
  5
3147
  8
0
 10
49.415513
 20
44.958996
 30
0.0
  0
VERTEX
  5
3148
  8
0
 10
49.225513
 20
44.958996
 30
0.0
  0
VERTEX
  5
3149
  8
0
 10
49.225513
 20
43.708996
 30
0.0
  0
SEQEND
  5
314A
  8
0
  0
POLYLINE
  5
1477
  8
0
 66
     1
 10
0.0
 20
0.0
 30
0.0
 70
     1
  0
VERTEX
  5
314B
  8
0
 10
48.975513
 20
43.708996
 30
0.0
  0
VERTEX
  5
314C
  8
0
 10
48.975513
 20
44.958996
 30
0.0
  0
VERTEX
  5
314D
  8
0
 10
48.785513
 20
44.958996
 30
0.0
  0
VERTEX
  5
314E
  8
0
 10
48.785513
 20
43.708996
 30
0.0
  0
SEQEND
  5
314F
  8
0
  0
POLYLINE
  5
1478
  8
0
 66
     1
 10
0.0
 20
0.0
 30
0.0
 70
     1
  0
VERTEX
  5
3150
  8
0
 10
48.535513
 20
43.708996
 30
0.0
  0
VERTEX
  5
3151
  8
0
 10
48.535513
 20
44.958996
 30
0.0
  0
VERTEX
  5
3152
  8
0
 10
48.345513
 20
44.958996
 30
0.0
  0
VERTEX
  5
3153
  8
0
 10
48.345513
 20
43.708996
 30
0.0
  0
SEQEND
  5
3154
  8
0
  0
POLYLINE
  5
1479
  8
0
 66
     1
 10
0.0
 20
0.0
 30
0.0
 70
     1
  0
VERTEX
  5
3155
  8
0
 10
47.655513
 20
40.708996
 30
0.0
  0
VERTEX
  5
3156
  8
0
 10
47.655513
 20
41.958996
 30
0.0
  0
VERTEX
  5
3157
  8
0
 10
47.465513
 20
41.958996
 30
0.0
  0
VERTEX
  5
3158
  8
0
 10
47.465513
 20
40.708996
 30
0.0
  0
SEQEND
  5
3159
  8
0
  0
POLYLINE
  5
147A
  8
0
 66
     1
 10
0.0
 20
0.0
 30
0.0
 70
     1
  0
VERTEX
  5
315A
  8
0
 10
48.095513
 20
40.708996
 30
0.0
  0
VERTEX
  5
315B
  8
0
 10
48.095513
 20
41.958996
 30
0.0
  0
VERTEX
  5
315C
  8
0
 10
47.905513
 20
41.958996
 30
0.0
  0
VERTEX
  5
315D
  8
0
 10
47.905513
 20
40.708996
 30
0.0
  0
SEQEND
  5
315E
  8
0
  0
POLYLINE
  5
147B
  8
0
 66
     1
 10
0.0
 20
0.0
 30
0.0
 70
     1
  0
VERTEX
  5
315F
  8
0
 10
48.535513
 20
40.708996
 30
0.0
  0
VERTEX
  5
3160
  8
0
 10
48.535513
 20
41.958996
 30
0.0
  0
VERTEX
  5
3161
  8
0
 10
48.345513
 20
41.958996
 30
0.0
  0
VERTEX
  5
3162
  8
0
 10
48.345513
 20
40.708996
 30
0.0
  0
SEQEND
  5
3163
  8
0
  0
POLYLINE
  5
147C
  8
0
 66
     1
 10
0.0
 20
0.0
 30
0.0
 70
     1
  0
VERTEX
  5
3164
  8
0
 10
48.975513
 20
40.708996
 30
0.0
  0
VERTEX
  5
3165
  8
0
 10
48.975513
 20
41.958996
 30
0.0
  0
VERTEX
  5
3166
  8
0
 10
48.785513
 20
41.958996
 30
0.0
  0
VERTEX
  5
3167
  8
0
 10
48.785513
 20
40.708996
 30
0.0
  0
SEQEND
  5
3168
  8
0
  0
POLYLINE
  5
147E
  8
0
 66
     1
 10
0.0
 20
0.0
 30
0.0
 70
     1
  0
VERTEX
  5
3169
  8
0
 10
50.295513
 20
40.708996
 30
0.0
  0
VERTEX
  5
316A
  8
0
 10
50.295513
 20
41.958996
 30
0.0
  0
VERTEX
  5
316B
  8
0
 10
50.105513
 20
41.958996
 30
0.0
  0
VERTEX
  5
316C
  8
0
 10
50.105513
 20
40.708996
 30
0.0
  0
SEQEND
  5
316D
  8
0
  0
POLYLINE
  5
147F
  8
0
 66
     1
 10
0.0
 20
0.0
 30
0.0
 70
     1
  0
VERTEX
  5
316E
  8
0
 10
49.415513
 20
40.708996
 30
0.0
  0
VERTEX
  5
316F
  8
0
 10
49.415513
 20
41.958996
 30
0.0
  0
VERTEX
  5
3170
  8
0
 10
49.225513
 20
41.958996
 30
0.0
  0
VERTEX
  5
3171
  8
0
 10
49.225513
 20
40.708996
 30
0.0
  0
SEQEND
  5
3172
  8
0
  0
POLYLINE
  5
1480
  8
0
 66
     1
 10
0.0
 20
0.0
 30
0.0
 70
     1
  0
VERTEX
  5
3173
  8
0
 10
49.855513
 20
40.708996
 30
0.0
  0
VERTEX
  5
3174
  8
0
 10
49.855513
 20
41.958996
 30
0.0
  0
VERTEX
  5
3175
  8
0
 10
49.665513
 20
41.958996
 30
0.0
  0
VERTEX
  5
3176
  8
0
 10
49.665513
 20
40.708996
 30
0.0
  0
SEQEND
  5
3177
  8
0
  0
POLYLINE
  5
1481
  8
0
 66
     1
 10
0.0
 20
0.0
 30
0.0
 70
     1
  0
VERTEX
  5
3178
  8
0
 10
50.735513
 20
40.708996
 30
0.0
  0
VERTEX
  5
3179
  8
0
 10
50.735513
 20
41.958996
 30
0.0
  0
VERTEX
  5
317A
  8
0
 10
50.545513
 20
41.958996
 30
0.0
  0
VERTEX
  5
317B
  8
0
 10
50.545513
 20
40.708996
 30
0.0
  0
SEQEND
  5
317C
  8
0
  0
POLYLINE
  5
1482
  8
0
 66
     1
 10
0.0
 20
0.0
 30
0.0
 70
     1
  0
VERTEX
  5
317D
  8
0
 10
51.175513
 20
40.708996
 30
0.0
  0
VERTEX
  5
317E
  8
0
 10
51.175513
 20
41.958996
 30
0.0
  0
VERTEX
  5
317F
  8
0
 10
50.985513
 20
41.958996
 30
0.0
  0
VERTEX
  5
3180
  8
0
 10
50.985513
 20
40.708996
 30
0.0
  0
SEQEND
  5
3181
  8
0
  0
LINE
  5
1483
  8
CENTERLINE
  6
CONTINUOUS
 10
55.079618
 20
43.348996
 30
0.0
 11
55.079618
 21
44.068996
 31
0.0
  0
LINE
  5
1484
  8
CENTERLINE
  6
CONTINUOUS
 10
51.479618
 20
43.348996
 30
0.0
 11
51.479618
 21
44.068996
 31
0.0
  0
POLYLINE
  5
1485
  8
0
 66
     1
 10
0.0
 20
0.0
 30
0.0
 70
     1
  0
VERTEX
  5
3182
  8
0
 10
53.815513
 20
43.708996
 30
0.0
  0
VERTEX
  5
3183
  8
0
 10
53.815513
 20
44.958996
 30
0.0
  0
VERTEX
  5
3184
  8
0
 10
53.625513
 20
44.958996
 30
0.0
  0
VERTEX
  5
3185
  8
0
 10
53.625513
 20
43.708996
 30
0.0
  0
SEQEND
  5
3186
  8
0
  0
POLYLINE
  5
1486
  8
0
 66
     1
 10
0.0
 20
0.0
 30
0.0
 70
     1
  0
VERTEX
  5
3187
  8
0
 10
54.255513
 20
43.708996
 30
0.0
  0
VERTEX
  5
3188
  8
0
 10
54.255513
 20
44.958996
 30
0.0
  0
VERTEX
  5
3189
  8
0
 10
54.065513
 20
44.958996
 30
0.0
  0
VERTEX
  5
318A
  8
0
 10
54.065513
 20
43.708996
 30
0.0
  0
SEQEND
  5
318B
  8
0
  0
POLYLINE
  5
1487
  8
0
 66
     1
 10
0.0
 20
0.0
 30
0.0
 70
     1
  0
VERTEX
  5
318C
  8
0
 10
53.375513
 20
43.708996
 30
0.0
  0
VERTEX
  5
318D
  8
0
 10
53.375513
 20
44.958996
 30
0.0
  0
VERTEX
  5
318E
  8
0
 10
53.185513
 20
44.958996
 30
0.0
  0
VERTEX
  5
318F
  8
0
 10
53.185513
 20
43.708996
 30
0.0
  0
SEQEND
  5
3190
  8
0
  0
POLYLINE
  5
1488
  8
0
 66
     1
 10
0.0
 20
0.0
 30
0.0
 70
     1
  0
VERTEX
  5
3191
  8
0
 10
52.935513
 20
43.708996
 30
0.0
  0
VERTEX
  5
3192
  8
0
 10
52.935513
 20
44.958996
 30
0.0
  0
VERTEX
  5
3193
  8
0
 10
52.745513
 20
44.958996
 30
0.0
  0
VERTEX
  5
3194
  8
0
 10
52.745513
 20
43.708996
 30
0.0
  0
SEQEND
  5
3195
  8
0
  0
POLYLINE
  5
1489
  8
0
 66
     1
 10
0.0
 20
0.0
 30
0.0
 70
     1
  0
VERTEX
  5
3196
  8
0
 10
54.579618
 20
43.518996
 30
0.0
  0
VERTEX
  5
3197
  8
0
 10
55.079618
 20
43.518996
 30
0.0
 42
1.0
  0
VERTEX
  5
3198
  8
0
 10
55.079618
 20
43.898996
 30
0.0
  0
VERTEX
  5
3199
  8
0
 10
54.579618
 20
43.898996
 30
0.0
 42
1.0
  0
SEQEND
  5
319A
  8
0
  0
LINE
  5
148A
  8
CENTERLINE
  6
CONTINUOUS
 10
54.579618
 20
43.348996
 30
0.0
 11
54.579618
 21
44.068996
 31
0.0
  0
LINE
  5
148B
  8
CENTERLINE
  6
CONTINUOUS
 10
51.979618
 20
43.348996
 30
0.0
 11
51.979618
 21
44.068996
 31
0.0
  0
POLYLINE
  5
148D
  8
0
 66
     1
 10
0.0
 20
0.0
 30
0.0
 70
     1
  0
VERTEX
  5
319B
  8
0
 10
52.495513
 20
40.708996
 30
0.0
  0
VERTEX
  5
319C
  8
0
 10
52.495513
 20
41.958996
 30
0.0
  0
VERTEX
  5
319D
  8
0
 10
52.305513
 20
41.958996
 30
0.0
  0
VERTEX
  5
319E
  8
0
 10
52.305513
 20
40.708996
 30
0.0
  0
SEQEND
  5
319F
  8
0
  0
POLYLINE
  5
148E
  8
0
 66
     1
 10
0.0
 20
0.0
 30
0.0
 70
     1
  0
VERTEX
  5
31A0
  8
0
 10
51.615513
 20
40.708996
 30
0.0
  0
VERTEX
  5
31A1
  8
0
 10
51.615513
 20
41.958996
 30
0.0
  0
VERTEX
  5
31A2
  8
0
 10
51.425513
 20
41.958996
 30
0.0
  0
VERTEX
  5
31A3
  8
0
 10
51.425513
 20
40.708996
 30
0.0
  0
SEQEND
  5
31A4
  8
0
  0
POLYLINE
  5
148F
  8
0
 66
     1
 10
0.0
 20
0.0
 30
0.0
 70
     1
  0
VERTEX
  5
31A5
  8
0
 10
52.055513
 20
40.708996
 30
0.0
  0
VERTEX
  5
31A6
  8
0
 10
52.055513
 20
41.958996
 30
0.0
  0
VERTEX
  5
31A7
  8
0
 10
51.865513
 20
41.958996
 30
0.0
  0
VERTEX
  5
31A8
  8
0
 10
51.865513
 20
40.708996
 30
0.0
  0
SEQEND
  5
31A9
  8
0
  0
POLYLINE
  5
1490
  8
0
 66
     1
 10
0.0
 20
0.0
 30
0.0
 70
     1
  0
VERTEX
  5
31AA
  8
0
 10
52.935513
 20
40.708996
 30
0.0
  0
VERTEX
  5
31AB
  8
0
 10
52.935513
 20
41.958996
 30
0.0
  0
VERTEX
  5
31AC
  8
0
 10
52.745513
 20
41.958996
 30
0.0
  0
VERTEX
  5
31AD
  8
0
 10
52.745513
 20
40.708996
 30
0.0
  0
SEQEND
  5
31AE
  8
0
  0
POLYLINE
  5
1491
  8
0
 66
     1
 10
0.0
 20
0.0
 30
0.0
 70
     1
  0
VERTEX
  5
31AF
  8
0
 10
53.375513
 20
40.708996
 30
0.0
  0
VERTEX
  5
31B0
  8
0
 10
53.375513
 20
41.958996
 30
0.0
  0
VERTEX
  5
31B1
  8
0
 10
53.185513
 20
41.958996
 30
0.0
  0
VERTEX
  5
31B2
  8
0
 10
53.185513
 20
40.708996
 30
0.0
  0
SEQEND
  5
31B3
  8
0
  0
LINE
  5
1492
  8
CENTERLINE
  6
CONTINUOUS
 10
51.619618
 20
43.708996
 30
0.0
 11
52.339618
 21
43.708996
 31
0.0
  0
POLYLINE
  5
1493
  8
0
 66
     1
 10
0.0
 20
0.0
 30
0.0
 70
     1
  0
VERTEX
  5
31B4
  8
0
 10
54.255513
 20
40.708996
 30
0.0
  0
VERTEX
  5
31B5
  8
0
 10
54.255513
 20
41.958996
 30
0.0
  0
VERTEX
  5
31B6
  8
0
 10
54.065513
 20
41.958996
 30
0.0
  0
VERTEX
  5
31B7
  8
0
 10
54.065513
 20
40.708996
 30
0.0
  0
SEQEND
  5
31B8
  8
0
  0
POLYLINE
  5
1494
  8
0
 66
     1
 10
0.0
 20
0.0
 30
0.0
 70
     1
  0
VERTEX
  5
31B9
  8
0
 10
54.695513
 20
40.708996
 30
0.0
  0
VERTEX
  5
31BA
  8
0
 10
54.695513
 20
41.958996
 30
0.0
  0
VERTEX
  5
31BB
  8
0
 10
54.505513
 20
41.958996
 30
0.0
  0
VERTEX
  5
31BC
  8
0
 10
54.505513
 20
40.708996
 30
0.0
  0
SEQEND
  5
31BD
  8
0
  0
POLYLINE
  5
1495
  8
0
 66
     1
 10
0.0
 20
0.0
 30
0.0
 70
     1
  0
VERTEX
  5
31BE
  8
0
 10
53.815513
 20
40.708996
 30
0.0
  0
VERTEX
  5
31BF
  8
0
 10
53.815513
 20
41.958996
 30
0.0
  0
VERTEX
  5
31C0
  8
0
 10
53.625513
 20
41.958996
 30
0.0
  0
VERTEX
  5
31C1
  8
0
 10
53.625513
 20
40.708996
 30
0.0
  0
SEQEND
  5
31C2
  8
0
  0
POLYLINE
  5
1496
  8
0
 66
     1
 10
0.0
 20
0.0
 30
0.0
 70
     1
  0
VERTEX
  5
31C3
  8
0
 10
55.575513
 20
40.708996
 30
0.0
  0
VERTEX
  5
31C4
  8
0
 10
55.575513
 20
41.958996
 30
0.0
  0
VERTEX
  5
31C5
  8
0
 10
55.385513
 20
41.958996
 30
0.0
  0
VERTEX
  5
31C6
  8
0
 10
55.385513
 20
40.708996
 30
0.0
  0
SEQEND
  5
31C7
  8
0
  0
POLYLINE
  5
1497
  8
0
 66
     1
 10
0.0
 20
0.0
 30
0.0
 70
     1
  0
VERTEX
  5
31C8
  8
0
 10
55.135513
 20
40.708996
 30
0.0
  0
VERTEX
  5
31C9
  8
0
 10
55.135513
 20
41.958996
 30
0.0
  0
VERTEX
  5
31CA
  8
0
 10
54.945513
 20
41.958996
 30
0.0
  0
VERTEX
  5
31CB
  8
0
 10
54.945513
 20
40.708996
 30
0.0
  0
SEQEND
  5
31CC
  8
0
  0
LINE
  5
1498
  8
CENTERLINE
  6
CONTINUOUS
 10
54.719618
 20
43.708996
 30
0.0
 11
55.439618
 21
43.708996
 31
0.0
  0
LINE
  5
1499
  8
CENTERLINE
  6
CONTINUOUS
 10
54.219618
 20
43.708996
 30
0.0
 11
54.939618
 21
43.708996
 31
0.0
  0
LINE
  5
149B
  8
CENTERLINE
  6
CONTINUOUS
 10
51.479618
 20
44.598996
 30
0.0
 11
51.479618
 21
45.318996
 31
0.0
  0
LINE
  5
149C
  8
CENTERLINE
  6
CONTINUOUS
 10
51.979618
 20
44.598996
 30
0.0
 11
51.979618
 21
45.318996
 31
0.0
  0
LINE
  5
149D
  8
CENTERLINE
  6
CONTINUOUS
 10
51.619618
 20
44.958996
 30
0.0
 11
52.339618
 21
44.958996
 31
0.0
  0
LINE
  5
149E
  8
CENTERLINE
  6
CONTINUOUS
 10
54.719618
 20
44.958996
 30
0.0
 11
55.439618
 21
44.958996
 31
0.0
  0
POLYLINE
  5
149F
  8
0
 66
     1
 10
0.0
 20
0.0
 30
0.0
 70
     1
  0
VERTEX
  5
31CD
  8
0
 10
54.579618
 20
44.768996
 30
0.0
  0
VERTEX
  5
31CE
  8
0
 10
55.079618
 20
44.768996
 30
0.0
 42
1.0
  0
VERTEX
  5
31CF
  8
0
 10
55.079618
 20
45.148996
 30
0.0
  0
VERTEX
  5
31D0
  8
0
 10
54.579618
 20
45.148996
 30
0.0
 42
1.0
  0
SEQEND
  5
31D1
  8
0
  0
LINE
  5
14A0
  8
CENTERLINE
  6
CONTINUOUS
 10
54.219618
 20
44.958996
 30
0.0
 11
54.939618
 21
44.958996
 31
0.0
  0
LINE
  5
14A1
  8
CENTERLINE
  6
CONTINUOUS
 10
54.579618
 20
44.598996
 30
0.0
 11
54.579618
 21
45.318996
 31
0.0
  0
LINE
  5
14A2
  8
CENTERLINE
  6
CONTINUOUS
 10
55.079618
 20
44.598996
 30
0.0
 11
55.079618
 21
45.318996
 31
0.0
  0
LINE
  5
14A3
  8
CENTERLINE
  6
CONTINUOUS
 10
59.488722
 20
42.458996
 30
0.0
 11
60.568722
 21
42.458996
 31
0.0
  0
POLYLINE
  5
14A4
  8
0
 66
     1
 10
0.0
 20
0.0
 30
0.0
 70
     1
  0
VERTEX
  5
31D2
  8
0
 10
59.095513
 20
43.708996
 30
0.0
  0
VERTEX
  5
31D3
  8
0
 10
59.095513
 20
44.958996
 30
0.0
  0
VERTEX
  5
31D4
  8
0
 10
58.905513
 20
44.958996
 30
0.0
  0
VERTEX
  5
31D5
  8
0
 10
58.905513
 20
43.708996
 30
0.0
  0
SEQEND
  5
31D6
  8
0
  0
POLYLINE
  5
14A5
  8
0
 66
     1
 10
0.0
 20
0.0
 30
0.0
 70
     1
  0
VERTEX
  5
31D7
  8
0
 10
58.655513
 20
43.708996
 30
0.0
  0
VERTEX
  5
31D8
  8
0
 10
58.655513
 20
44.958996
 30
0.0
  0
VERTEX
  5
31D9
  8
0
 10
58.465513
 20
44.958996
 30
0.0
  0
VERTEX
  5
31DA
  8
0
 10
58.465513
 20
43.708996
 30
0.0
  0
SEQEND
  5
31DB
  8
0
  0
POLYLINE
  5
14A6
  8
0
 66
     1
 10
0.0
 20
0.0
 30
0.0
 70
     1
  0
VERTEX
  5
31DC
  8
0
 10
58.215513
 20
43.708996
 30
0.0
  0
VERTEX
  5
31DD
  8
0
 10
58.215513
 20
44.958996
 30
0.0
  0
VERTEX
  5
31DE
  8
0
 10
58.025513
 20
44.958996
 30
0.0
  0
VERTEX
  5
31DF
  8
0
 10
58.025513
 20
43.708996
 30
0.0
  0
SEQEND
  5
31E0
  8
0
  0
POLYLINE
  5
14A7
  8
0
 66
     1
 10
0.0
 20
0.0
 30
0.0
 70
     1
  0
VERTEX
  5
31E1
  8
0
 10
57.775513
 20
43.708996
 30
0.0
  0
VERTEX
  5
31E2
  8
0
 10
57.775513
 20
44.958996
 30
0.0
  0
VERTEX
  5
31E3
  8
0
 10
57.585513
 20
44.958996
 30
0.0
  0
VERTEX
  5
31E4
  8
0
 10
57.585513
 20
43.708996
 30
0.0
  0
SEQEND
  5
31E5
  8
0
  0
POLYLINE
  5
14A8
  8
0
 66
     1
 10
0.0
 20
0.0
 30
0.0
 70
     1
  0
VERTEX
  5
31E6
  8
0
 10
57.335513
 20
43.708996
 30
0.0
  0
VERTEX
  5
31E7
  8
0
 10
57.335513
 20
44.958996
 30
0.0
  0
VERTEX
  5
31E8
  8
0
 10
57.145513
 20
44.958996
 30
0.0
  0
VERTEX
  5
31E9
  8
0
 10
57.145513
 20
43.708996
 30
0.0
  0
SEQEND
  5
31EA
  8
0
  0
POLYLINE
  5
14A9
  8
0
 66
     1
 10
0.0
 20
0.0
 30
0.0
 70
     1
  0
VERTEX
  5
31EB
  8
0
 10
56.895513
 20
43.708996
 30
0.0
  0
VERTEX
  5
31EC
  8
0
 10
56.895513
 20
44.958996
 30
0.0
  0
VERTEX
  5
31ED
  8
0
 10
56.705513
 20
44.958996
 30
0.0
  0
VERTEX
  5
31EE
  8
0
 10
56.705513
 20
43.708996
 30
0.0
  0
SEQEND
  5
31EF
  8
0
  0
POLYLINE
  5
14AA
  8
0
 66
     1
 10
0.0
 20
0.0
 30
0.0
 70
     1
  0
VERTEX
  5
31F0
  8
0
 10
56.455513
 20
43.708996
 30
0.0
  0
VERTEX
  5
31F1
  8
0
 10
56.455513
 20
44.958996
 30
0.0
  0
VERTEX
  5
31F2
  8
0
 10
56.265513
 20
44.958996
 30
0.0
  0
VERTEX
  5
31F3
  8
0
 10
56.265513
 20
43.708996
 30
0.0
  0
SEQEND
  5
31F4
  8
0
  0
POLYLINE
  5
14AB
  8
0
 66
     1
 10
0.0
 20
0.0
 30
0.0
 70
     1
  0
VERTEX
  5
31F5
  8
0
 10
58.215513
 20
40.708996
 30
0.0
  0
VERTEX
  5
31F6
  8
0
 10
58.215513
 20
41.958996
 30
0.0
  0
VERTEX
  5
31F7
  8
0
 10
58.025513
 20
41.958996
 30
0.0
  0
VERTEX
  5
31F8
  8
0
 10
58.025513
 20
40.708996
 30
0.0
  0
SEQEND
  5
31F9
  8
0
  0
POLYLINE
  5
14AC
  8
0
 66
     1
 10
0.0
 20
0.0
 30
0.0
 70
     1
  0
VERTEX
  5
31FA
  8
0
 10
56.455513
 20
40.708996
 30
0.0
  0
VERTEX
  5
31FB
  8
0
 10
56.455513
 20
41.958996
 30
0.0
  0
VERTEX
  5
31FC
  8
0
 10
56.265513
 20
41.958996
 30
0.0
  0
VERTEX
  5
31FD
  8
0
 10
56.265513
 20
40.708996
 30
0.0
  0
SEQEND
  5
31FE
  8
0
  0
POLYLINE
  5
14AD
  8
0
 66
     1
 10
0.0
 20
0.0
 30
0.0
 70
     1
  0
VERTEX
  5
31FF
  8
0
 10
56.895513
 20
40.708996
 30
0.0
  0
VERTEX
  5
3200
  8
0
 10
56.895513
 20
41.958996
 30
0.0
  0
VERTEX
  5
3201
  8
0
 10
56.705513
 20
41.958996
 30
0.0
  0
VERTEX
  5
3202
  8
0
 10
56.705513
 20
40.708996
 30
0.0
  0
SEQEND
  5
3203
  8
0
  0
POLYLINE
  5
14AE
  8
0
 66
     1
 10
0.0
 20
0.0
 30
0.0
 70
     1
  0
VERTEX
  5
3204
  8
0
 10
57.335513
 20
40.708996
 30
0.0
  0
VERTEX
  5
3205
  8
0
 10
57.335513
 20
41.958996
 30
0.0
  0
VERTEX
  5
3206
  8
0
 10
57.145513
 20
41.958996
 30
0.0
  0
VERTEX
  5
3207
  8
0
 10
57.145513
 20
40.708996
 30
0.0
  0
SEQEND
  5
3208
  8
0
  0
POLYLINE
  5
14AF
  8
0
 66
     1
 10
0.0
 20
0.0
 30
0.0
 70
     1
  0
VERTEX
  5
3209
  8
0
 10
57.775513
 20
40.708996
 30
0.0
  0
VERTEX
  5
320A
  8
0
 10
57.775513
 20
41.958996
 30
0.0
  0
VERTEX
  5
320B
  8
0
 10
57.585513
 20
41.958996
 30
0.0
  0
VERTEX
  5
320C
  8
0
 10
57.585513
 20
40.708996
 30
0.0
  0
SEQEND
  5
320D
  8
0
  0
LINE
  5
14B0
  8
CENTERLINE
  6
CONTINUOUS
 10
60.028722
 20
41.918996
 30
0.0
 11
60.028722
 21
42.998996
 31
0.0
  0
POLYLINE
  5
14B1
  8
0
 66
     1
 10
0.0
 20
0.0
 30
0.0
 70
     1
  0
VERTEX
  5
320E
  8
0
 10
58.655513
 20
40.708996
 30
0.0
  0
VERTEX
  5
320F
  8
0
 10
58.655513
 20
41.958996
 30
0.0
  0
VERTEX
  5
3210
  8
0
 10
58.465513
 20
41.958996
 30
0.0
  0
VERTEX
  5
3211
  8
0
 10
58.465513
 20
40.708996
 30
0.0
  0
SEQEND
  5
3212
  8
0
  0
POLYLINE
  5
14B2
  8
0
 66
     1
 10
0.0
 20
0.0
 30
0.0
 70
     1
  0
VERTEX
  5
3213
  8
0
 10
59.095513
 20
40.708996
 30
0.0
  0
VERTEX
  5
3214
  8
0
 10
59.095513
 20
41.958996
 30
0.0
  0
VERTEX
  5
3215
  8
0
 10
58.905513
 20
41.958996
 30
0.0
  0
VERTEX
  5
3216
  8
0
 10
58.905513
 20
40.708996
 30
0.0
  0
SEQEND
  5
3217
  8
0
  0
TEXT
  5
14B3
  8
DIMENSION
 10
59.391251
 20
42.639115
 30
0.0
 40
0.333325
  1
"A"
 41
0.8
  7
MASTER
  0
CIRCLE
  5
14B4
  8
0
 10
60.028722
 20
42.458996
 30
0.0
 40
0.22
  0
POLYLINE
  5
14B6
  8
HIDDEN
 66
     1
 10
0.0
 20
0.0
 30
0.0
  0
VERTEX
  5
3218
  8
HIDDEN
 10
56.015513
 20
51.84915
 30
0.0
  0
VERTEX
  5
3219
  8
HIDDEN
 10
56.015513
 20
51.958996
 30
0.0
  0
VERTEX
  5
321A
  8
HIDDEN
 10
55.825513
 20
51.958996
 30
0.0
  0
VERTEX
  5
321B
  8
HIDDEN
 10
55.825513
 20
51.84915
 30
0.0
  0
SEQEND
  5
321C
  8
HIDDEN
  0
POLYLINE
  5
14B7
  8
0
 66
     1
 10
0.0
 20
0.0
 30
0.0
  0
VERTEX
  5
321D
  8
0
 10
55.825513
 20
51.708996
 30
0.0
  0
VERTEX
  5
321E
  8
0
 10
55.825513
 20
50.708996
 30
0.0
  0
VERTEX
  5
321F
  8
0
 10
56.015513
 20
50.708996
 30
0.0
  0
SEQEND
  5
3220
  8
0
  0
POLYLINE
  5
14B8
  8
0
 66
     1
 10
0.0
 20
0.0
 30
0.0
 70
     1
  0
VERTEX
  5
3221
  8
0
 10
51.479618
 20
48.268996
 30
0.0
  0
VERTEX
  5
3222
  8
0
 10
51.979618
 20
48.268996
 30
0.0
 42
1.0
  0
VERTEX
  5
3223
  8
0
 10
51.979618
 20
48.648996
 30
0.0
  0
VERTEX
  5
3224
  8
0
 10
51.479618
 20
48.648996
 30
0.0
 42
1.0
  0
SEQEND
  5
3225
  8
0
  0
LINE
  5
14B9
  8
CENTERLINE
  6
CONTINUOUS
 10
51.155618
 20
49.708996
 30
0.0
 11
51.803618
 21
49.708996
 31
0.0
  0
LINE
  5
14BA
  8
CENTERLINE
  6
CONTINUOUS
 10
51.119618
 20
48.458996
 30
0.0
 11
51.839618
 21
48.458996
 31
0.0
  0
POLYLINE
  5
14BB
  8
0
 66
     1
 10
0.0
 20
0.0
 30
0.0
 70
     1
  0
VERTEX
  5
3226
  8
0
 10
51.479618
 20
49.518996
 30
0.0
  0
VERTEX
  5
3227
  8
0
 10
51.979618
 20
49.518996
 30
0.0
 42
1.0
  0
VERTEX
  5
3228
  8
0
 10
51.979618
 20
49.898996
 30
0.0
  0
VERTEX
  5
3229
  8
0
 10
51.479618
 20
49.898996
 30
0.0
 42
1.0
  0
SEQEND
  5
322A
  8
0
  0
POLYLINE
  5
14BC
  8
0
 66
     1
 10
0.0
 20
0.0
 30
0.0
  0
VERTEX
  5
322B
  8
0
 10
47.465513
 20
51.708996
 30
0.0
  0
VERTEX
  5
322C
  8
0
 10
47.465513
 20
50.708996
 30
0.0
  0
VERTEX
  5
322D
  8
0
 10
47.655513
 20
50.708996
 30
0.0
  0
SEQEND
  5
322E
  8
0
  0
POLYLINE
  5
14BD
  8
0
 66
     1
 10
0.0
 20
0.0
 30
0.0
  0
VERTEX
  5
322F
  8
0
 10
47.655513
 20
50.708996
 30
0.0
  0
VERTEX
  5
3230
  8
0
 10
47.655513
 20
51.708996
 30
0.0
  0
SEQEND
  5
3231
  8
0
  0
POLYLINE
  5
14BE
  8
0
 66
     1
 10
0.0
 20
0.0
 30
0.0
  0
VERTEX
  5
3232
  8
0
 10
47.905513
 20
51.708996
 30
0.0
  0
VERTEX
  5
3233
  8
0
 10
47.905513
 20
50.708996
 30
0.0
  0
VERTEX
  5
3234
  8
0
 10
48.095513
 20
50.708996
 30
0.0
  0
SEQEND
  5
3235
  8
0
  0
POLYLINE
  5
14BF
  8
0
 66
     1
 10
0.0
 20
0.0
 30
0.0
  0
VERTEX
  5
3236
  8
0
 10
48.095513
 20
50.708996
 30
0.0
  0
VERTEX
  5
3237
  8
0
 10
48.095513
 20
51.708996
 30
0.0
  0
SEQEND
  5
3238
  8
0
  0
POLYLINE
  5
14C0
  8
0
 66
     1
 10
0.0
 20
0.0
 30
0.0
  0
VERTEX
  5
3239
  8
0
 10
48.345513
 20
51.708996
 30
0.0
  0
VERTEX
  5
323A
  8
0
 10
48.345513
 20
50.708996
 30
0.0
  0
VERTEX
  5
323B
  8
0
 10
48.535513
 20
50.708996
 30
0.0
  0
SEQEND
  5
323C
  8
0
  0
POLYLINE
  5
14C1
  8
0
 66
     1
 10
0.0
 20
0.0
 30
0.0
  0
VERTEX
  5
323D
  8
0
 10
48.535513
 20
50.708996
 30
0.0
  0
VERTEX
  5
323E
  8
0
 10
48.535513
 20
51.708996
 30
0.0
  0
SEQEND
  5
323F
  8
0
  0
POLYLINE
  5
14C2
  8
0
 66
     1
 10
0.0
 20
0.0
 30
0.0
  0
VERTEX
  5
3240
  8
0
 10
48.785513
 20
51.708996
 30
0.0
  0
VERTEX
  5
3241
  8
0
 10
48.785513
 20
50.708996
 30
0.0
  0
VERTEX
  5
3242
  8
0
 10
48.975513
 20
50.708996
 30
0.0
  0
SEQEND
  5
3243
  8
0
  0
POLYLINE
  5
14C3
  8
0
 66
     1
 10
0.0
 20
0.0
 30
0.0
  0
VERTEX
  5
3244
  8
0
 10
48.975513
 20
50.708996
 30
0.0
  0
VERTEX
  5
3245
  8
0
 10
48.975513
 20
51.708996
 30
0.0
  0
SEQEND
  5
3246
  8
0
  0
POLYLINE
  5
14C4
  8
0
 66
     1
 10
0.0
 20
0.0
 30
0.0
  0
VERTEX
  5
3247
  8
0
 10
49.225513
 20
51.708996
 30
0.0
  0
VERTEX
  5
3248
  8
0
 10
49.225513
 20
50.708996
 30
0.0
  0
VERTEX
  5
3249
  8
0
 10
49.415513
 20
50.708996
 30
0.0
  0
SEQEND
  5
324A
  8
0
  0
POLYLINE
  5
14C5
  8
0
 66
     1
 10
0.0
 20
0.0
 30
0.0
  0
VERTEX
  5
324B
  8
0
 10
49.415513
 20
50.708996
 30
0.0
  0
VERTEX
  5
324C
  8
0
 10
49.415513
 20
51.708996
 30
0.0
  0
SEQEND
  5
324D
  8
0
  0
POLYLINE
  5
14C6
  8
0
 66
     1
 10
0.0
 20
0.0
 30
0.0
  0
VERTEX
  5
324E
  8
0
 10
49.665513
 20
51.708996
 30
0.0
  0
VERTEX
  5
324F
  8
0
 10
49.665513
 20
50.708996
 30
0.0
  0
VERTEX
  5
3250
  8
0
 10
49.855513
 20
50.708996
 30
0.0
  0
SEQEND
  5
3251
  8
0
  0
POLYLINE
  5
14C7
  8
0
 66
     1
 10
0.0
 20
0.0
 30
0.0
  0
VERTEX
  5
3252
  8
0
 10
49.855513
 20
50.708996
 30
0.0
  0
VERTEX
  5
3253
  8
0
 10
49.855513
 20
51.708996
 30
0.0
  0
SEQEND
  5
3254
  8
0
  0
POLYLINE
  5
14C8
  8
0
 66
     1
 10
0.0
 20
0.0
 30
0.0
  0
VERTEX
  5
3255
  8
0
 10
50.105513
 20
51.708996
 30
0.0
  0
VERTEX
  5
3256
  8
0
 10
50.105513
 20
50.708996
 30
0.0
  0
VERTEX
  5
3257
  8
0
 10
50.295513
 20
50.708996
 30
0.0
  0
SEQEND
  5
3258
  8
0
  0
POLYLINE
  5
14C9
  8
0
 66
     1
 10
0.0
 20
0.0
 30
0.0
  0
VERTEX
  5
3259
  8
0
 10
50.295513
 20
50.708996
 30
0.0
  0
VERTEX
  5
325A
  8
0
 10
50.295513
 20
51.708996
 30
0.0
  0
SEQEND
  5
325B
  8
0
  0
POLYLINE
  5
14CA
  8
0
 66
     1
 10
0.0
 20
0.0
 30
0.0
  0
VERTEX
  5
325C
  8
0
 10
50.545513
 20
51.708996
 30
0.0
  0
VERTEX
  5
325D
  8
0
 10
50.545513
 20
50.708996
 30
0.0
  0
VERTEX
  5
325E
  8
0
 10
50.735513
 20
50.708996
 30
0.0
  0
SEQEND
  5
325F
  8
0
  0
POLYLINE
  5
14CB
  8
0
 66
     1
 10
0.0
 20
0.0
 30
0.0
  0
VERTEX
  5
3260
  8
0
 10
50.735513
 20
50.708996
 30
0.0
  0
VERTEX
  5
3261
  8
0
 10
50.735513
 20
51.708996
 30
0.0
  0
SEQEND
  5
3262
  8
0
  0
POLYLINE
  5
14CC
  8
0
 66
     1
 10
0.0
 20
0.0
 30
0.0
  0
VERTEX
  5
3263
  8
0
 10
50.985513
 20
51.708996
 30
0.0
  0
VERTEX
  5
3264
  8
0
 10
50.985513
 20
50.708996
 30
0.0
  0
VERTEX
  5
3265
  8
0
 10
51.175513
 20
50.708996
 30
0.0
  0
SEQEND
  5
3266
  8
0
  0
POLYLINE
  5
14CD
  8
0
 66
     1
 10
0.0
 20
0.0
 30
0.0
  0
VERTEX
  5
3267
  8
0
 10
51.175513
 20
50.708996
 30
0.0
  0
VERTEX
  5
3268
  8
0
 10
51.175513
 20
51.708996
 30
0.0
  0
SEQEND
  5
3269
  8
0
  0
LINE
  5
14CF
  8
CENTERLINE
  6
CONTINUOUS
 10
47.031101
 20
52.342447
 30
0.0
 11
47.031101
 21
53.062447
 31
0.0
  0
POLYLINE
  5
14D0
  8
HIDDEN
 66
     1
 10
0.0
 20
0.0
 30
0.0
  0
VERTEX
  5
326A
  8
HIDDEN
 10
47.655513
 20
51.84915
 30
0.0
  0
VERTEX
  5
326B
  8
HIDDEN
 10
47.655513
 20
51.958996
 30
0.0
  0
VERTEX
  5
326C
  8
HIDDEN
 10
47.465513
 20
51.958996
 30
0.0
  0
VERTEX
  5
326D
  8
HIDDEN
 10
47.465513
 20
51.84915
 30
0.0
  0
SEQEND
  5
326E
  8
HIDDEN
  0
POLYLINE
  5
14D1
  8
HIDDEN
 66
     1
 10
0.0
 20
0.0
 30
0.0
  0
VERTEX
  5
326F
  8
HIDDEN
 10
48.095513
 20
51.84915
 30
0.0
  0
VERTEX
  5
3270
  8
HIDDEN
 10
48.095513
 20
51.958996
 30
0.0
  0
VERTEX
  5
3271
  8
HIDDEN
 10
47.905513
 20
51.958996
 30
0.0
  0
VERTEX
  5
3272
  8
HIDDEN
 10
47.905513
 20
51.84915
 30
0.0
  0
SEQEND
  5
3273
  8
HIDDEN
  0
POLYLINE
  5
14D2
  8
HIDDEN
 66
     1
 10
0.0
 20
0.0
 30
0.0
  0
VERTEX
  5
3274
  8
HIDDEN
 10
48.535513
 20
51.84915
 30
0.0
  0
VERTEX
  5
3275
  8
HIDDEN
 10
48.535513
 20
51.958996
 30
0.0
  0
VERTEX
  5
3276
  8
HIDDEN
 10
48.345513
 20
51.958996
 30
0.0
  0
VERTEX
  5
3277
  8
HIDDEN
 10
48.345513
 20
51.84915
 30
0.0
  0
SEQEND
  5
3278
  8
HIDDEN
  0
POLYLINE
  5
14D3
  8
HIDDEN
 66
     1
 10
0.0
 20
0.0
 30
0.0
  0
VERTEX
  5
3279
  8
HIDDEN
 10
48.975513
 20
51.84915
 30
0.0
  0
VERTEX
  5
327A
  8
HIDDEN
 10
48.975513
 20
51.958996
 30
0.0
  0
VERTEX
  5
327B
  8
HIDDEN
 10
48.785513
 20
51.958996
 30
0.0
  0
VERTEX
  5
327C
  8
HIDDEN
 10
48.785513
 20
51.84915
 30
0.0
  0
SEQEND
  5
327D
  8
HIDDEN
  0
LINE
  5
14D4
  8
CENTERLINE
  6
CONTINUOUS
 10
50.281313
 20
52.234447
 30
0.0
 11
50.281313
 21
53.170447
 31
0.0
  0
LINE
  5
14D5
  8
0
 10
50.399618
 20
52.638996
 30
0.0
 11
50.159618
 21
52.638996
 31
0.0
  0
POLYLINE
  5
14D6
  8
HIDDEN
 66
     1
 10
0.0
 20
0.0
 30
0.0
  0
VERTEX
  5
327E
  8
HIDDEN
 10
50.295513
 20
51.84915
 30
0.0
  0
VERTEX
  5
327F
  8
HIDDEN
 10
50.295513
 20
51.958996
 30
0.0
  0
VERTEX
  5
3280
  8
HIDDEN
 10
50.105513
 20
51.958996
 30
0.0
  0
VERTEX
  5
3281
  8
HIDDEN
 10
50.105513
 20
51.84915
 30
0.0
  0
SEQEND
  5
3282
  8
HIDDEN
  0
POLYLINE
  5
14D7
  8
HIDDEN
 66
     1
 10
0.0
 20
0.0
 30
0.0
  0
VERTEX
  5
3283
  8
HIDDEN
 10
49.415513
 20
51.84915
 30
0.0
  0
VERTEX
  5
3284
  8
HIDDEN
 10
49.415513
 20
51.958996
 30
0.0
  0
VERTEX
  5
3285
  8
HIDDEN
 10
49.225513
 20
51.958996
 30
0.0
  0
VERTEX
  5
3286
  8
HIDDEN
 10
49.225513
 20
51.84915
 30
0.0
  0
SEQEND
  5
3287
  8
HIDDEN
  0
POLYLINE
  5
14D8
  8
HIDDEN
 66
     1
 10
0.0
 20
0.0
 30
0.0
  0
VERTEX
  5
3288
  8
HIDDEN
 10
49.855513
 20
51.84915
 30
0.0
  0
VERTEX
  5
3289
  8
HIDDEN
 10
49.855513
 20
51.958996
 30
0.0
  0
VERTEX
  5
328A
  8
HIDDEN
 10
49.665513
 20
51.958996
 30
0.0
  0
VERTEX
  5
328B
  8
HIDDEN
 10
49.665513
 20
51.84915
 30
0.0
  0
SEQEND
  5
328C
  8
HIDDEN
  0
POLYLINE
  5
14D9
  8
HIDDEN
 66
     1
 10
0.0
 20
0.0
 30
0.0
  0
VERTEX
  5
328D
  8
HIDDEN
 10
50.735513
 20
51.84915
 30
0.0
  0
VERTEX
  5
328E
  8
HIDDEN
 10
50.735513
 20
51.958996
 30
0.0
  0
VERTEX
  5
328F
  8
HIDDEN
 10
50.545513
 20
51.958996
 30
0.0
  0
VERTEX
  5
3290
  8
HIDDEN
 10
50.545513
 20
51.84915
 30
0.0
  0
SEQEND
  5
3291
  8
HIDDEN
  0
POLYLINE
  5
14DA
  8
HIDDEN
 66
     1
 10
0.0
 20
0.0
 30
0.0
  0
VERTEX
  5
3292
  8
HIDDEN
 10
51.175513
 20
51.84915
 30
0.0
  0
VERTEX
  5
3293
  8
HIDDEN
 10
51.175513
 20
51.958996
 30
0.0
  0
VERTEX
  5
3294
  8
HIDDEN
 10
50.985513
 20
51.958996
 30
0.0
  0
VERTEX
  5
3295
  8
HIDDEN
 10
50.985513
 20
51.84915
 30
0.0
  0
SEQEND
  5
3296
  8
HIDDEN
  0
POLYLINE
  5
14DB
  8
0
 66
     1
 10
0.0
 20
0.0
 30
0.0
  0
VERTEX
  5
3297
  8
0
 10
51.425513
 20
51.708996
 30
0.0
  0
VERTEX
  5
3298
  8
0
 10
51.425513
 20
50.708996
 30
0.0
  0
VERTEX
  5
3299
  8
0
 10
51.615513
 20
50.708996
 30
0.0
  0
SEQEND
  5
329A
  8
0
  0
POLYLINE
  5
14DC
  8
0
 66
     1
 10
0.0
 20
0.0
 30
0.0
  0
VERTEX
  5
329B
  8
0
 10
51.615513
 20
50.708996
 30
0.0
  0
VERTEX
  5
329C
  8
0
 10
51.615513
 20
51.708996
 30
0.0
  0
SEQEND
  5
329D
  8
0
  0
POLYLINE
  5
14DD
  8
0
 66
     1
 10
0.0
 20
0.0
 30
0.0
  0
VERTEX
  5
329E
  8
0
 10
51.865513
 20
51.708996
 30
0.0
  0
VERTEX
  5
329F
  8
0
 10
51.865513
 20
50.708996
 30
0.0
  0
VERTEX
  5
32A0
  8
0
 10
52.055513
 20
50.708996
 30
0.0
  0
SEQEND
  5
32A1
  8
0
  0
POLYLINE
  5
14DE
  8
0
 66
     1
 10
0.0
 20
0.0
 30
0.0
  0
VERTEX
  5
32A2
  8
0
 10
52.055513
 20
50.708996
 30
0.0
  0
VERTEX
  5
32A3
  8
0
 10
52.055513
 20
51.708996
 30
0.0
  0
SEQEND
  5
32A4
  8
0
  0
POLYLINE
  5
14DF
  8
0
 66
     1
 10
0.0
 20
0.0
 30
0.0
  0
VERTEX
  5
32A5
  8
0
 10
55.575513
 20
50.708996
 30
0.0
  0
VERTEX
  5
32A6
  8
0
 10
55.575513
 20
51.708996
 30
0.0
  0
SEQEND
  5
32A7
  8
0
  0
POLYLINE
  5
14E0
  8
0
 66
     1
 10
0.0
 20
0.0
 30
0.0
  0
VERTEX
  5
32A8
  8
0
 10
55.385513
 20
51.708996
 30
0.0
  0
VERTEX
  5
32A9
  8
0
 10
55.385513
 20
50.708996
 30
0.0
  0
VERTEX
  5
32AA
  8
0
 10
55.575513
 20
50.708996
 30
0.0
  0
SEQEND
  5
32AB
  8
0
  0
POLYLINE
  5
14E1
  8
0
 66
     1
 10
0.0
 20
0.0
 30
0.0
  0
VERTEX
  5
32AC
  8
0
 10
55.135513
 20
50.708996
 30
0.0
  0
VERTEX
  5
32AD
  8
0
 10
55.135513
 20
51.708996
 30
0.0
  0
SEQEND
  5
32AE
  8
0
  0
POLYLINE
  5
14E2
  8
0
 66
     1
 10
0.0
 20
0.0
 30
0.0
  0
VERTEX
  5
32AF
  8
0
 10
54.945513
 20
51.708996
 30
0.0
  0
VERTEX
  5
32B0
  8
0
 10
54.945513
 20
50.708996
 30
0.0
  0
VERTEX
  5
32B1
  8
0
 10
55.135513
 20
50.708996
 30
0.0
  0
SEQEND
  5
32B2
  8
0
  0
POLYLINE
  5
14E3
  8
0
 66
     1
 10
0.0
 20
0.0
 30
0.0
  0
VERTEX
  5
32B3
  8
0
 10
54.695513
 20
50.708996
 30
0.0
  0
VERTEX
  5
32B4
  8
0
 10
54.695513
 20
51.708996
 30
0.0
  0
SEQEND
  5
32B5
  8
0
  0
POLYLINE
  5
14E4
  8
0
 66
     1
 10
0.0
 20
0.0
 30
0.0
  0
VERTEX
  5
32B6
  8
0
 10
54.505513
 20
51.708996
 30
0.0
  0
VERTEX
  5
32B7
  8
0
 10
54.505513
 20
50.708996
 30
0.0
  0
VERTEX
  5
32B8
  8
0
 10
54.695513
 20
50.708996
 30
0.0
  0
SEQEND
  5
32B9
  8
0
  0
POLYLINE
  5
14E5
  8
0
 66
     1
 10
0.0
 20
0.0
 30
0.0
  0
VERTEX
  5
32BA
  8
0
 10
54.255513
 20
50.708996
 30
0.0
  0
VERTEX
  5
32BB
  8
0
 10
54.255513
 20
51.708996
 30
0.0
  0
SEQEND
  5
32BC
  8
0
  0
POLYLINE
  5
14E6
  8
0
 66
     1
 10
0.0
 20
0.0
 30
0.0
  0
VERTEX
  5
32BD
  8
0
 10
54.065513
 20
51.708996
 30
0.0
  0
VERTEX
  5
32BE
  8
0
 10
54.065513
 20
50.708996
 30
0.0
  0
VERTEX
  5
32BF
  8
0
 10
54.255513
 20
50.708996
 30
0.0
  0
SEQEND
  5
32C0
  8
0
  0
POLYLINE
  5
14E7
  8
0
 66
     1
 10
0.0
 20
0.0
 30
0.0
  0
VERTEX
  5
32C1
  8
0
 10
53.815513
 20
50.708996
 30
0.0
  0
VERTEX
  5
32C2
  8
0
 10
53.815513
 20
51.708996
 30
0.0
  0
SEQEND
  5
32C3
  8
0
  0
POLYLINE
  5
14E8
  8
0
 66
     1
 10
0.0
 20
0.0
 30
0.0
  0
VERTEX
  5
32C4
  8
0
 10
53.625513
 20
51.708996
 30
0.0
  0
VERTEX
  5
32C5
  8
0
 10
53.625513
 20
50.708996
 30
0.0
  0
VERTEX
  5
32C6
  8
0
 10
53.815513
 20
50.708996
 30
0.0
  0
SEQEND
  5
32C7
  8
0
  0
POLYLINE
  5
14E9
  8
0
 66
     1
 10
0.0
 20
0.0
 30
0.0
  0
VERTEX
  5
32C8
  8
0
 10
53.375513
 20
50.708996
 30
0.0
  0
VERTEX
  5
32C9
  8
0
 10
53.375513
 20
51.708996
 30
0.0
  0
SEQEND
  5
32CA
  8
0
  0
POLYLINE
  5
14EA
  8
0
 66
     1
 10
0.0
 20
0.0
 30
0.0
  0
VERTEX
  5
32CB
  8
0
 10
53.185513
 20
51.708996
 30
0.0
  0
VERTEX
  5
32CC
  8
0
 10
53.185513
 20
50.708996
 30
0.0
  0
VERTEX
  5
32CD
  8
0
 10
53.375513
 20
50.708996
 30
0.0
  0
SEQEND
  5
32CE
  8
0
  0
POLYLINE
  5
14EB
  8
0
 66
     1
 10
0.0
 20
0.0
 30
0.0
  0
VERTEX
  5
32CF
  8
0
 10
52.935513
 20
50.708996
 30
0.0
  0
VERTEX
  5
32D0
  8
0
 10
52.935513
 20
51.708996
 30
0.0
  0
SEQEND
  5
32D1
  8
0
  0
POLYLINE
  5
14EC
  8
0
 66
     1
 10
0.0
 20
0.0
 30
0.0
  0
VERTEX
  5
32D2
  8
0
 10
52.745513
 20
51.708996
 30
0.0
  0
VERTEX
  5
32D3
  8
0
 10
52.745513
 20
50.708996
 30
0.0
  0
VERTEX
  5
32D4
  8
0
 10
52.935513
 20
50.708996
 30
0.0
  0
SEQEND
  5
32D5
  8
0
  0
POLYLINE
  5
14ED
  8
0
 66
     1
 10
0.0
 20
0.0
 30
0.0
  0
VERTEX
  5
32D6
  8
0
 10
52.495513
 20
50.708996
 30
0.0
  0
VERTEX
  5
32D7
  8
0
 10
52.495513
 20
51.708996
 30
0.0
  0
SEQEND
  5
32D8
  8
0
  0
POLYLINE
  5
14EE
  8
0
 66
     1
 10
0.0
 20
0.0
 30
0.0
  0
VERTEX
  5
32D9
  8
0
 10
52.305513
 20
51.708996
 30
0.0
  0
VERTEX
  5
32DA
  8
0
 10
52.305513
 20
50.708996
 30
0.0
  0
VERTEX
  5
32DB
  8
0
 10
52.495513
 20
50.708996
 30
0.0
  0
SEQEND
  5
32DC
  8
0
  0
LINE
  5
14F1
  8
CENTERLINE
  6
CONTINUOUS
 10
51.479618
 20
48.098996
 30
0.0
 11
51.479618
 21
48.818996
 31
0.0
  0
LINE
  5
14F2
  8
CENTERLINE
  6
CONTINUOUS
 10
51.979618
 20
48.098996
 30
0.0
 11
51.979618
 21
48.818996
 31
0.0
  0
LINE
  5
14F4
  8
CENTERLINE
  6
CONTINUOUS
 10
51.479618
 20
49.384996
 30
0.0
 11
51.479618
 21
50.032996
 31
0.0
  0
LINE
  5
14F5
  8
CENTERLINE
  6
CONTINUOUS
 10
51.979618
 20
49.384996
 30
0.0
 11
51.979618
 21
50.032996
 31
0.0
  0
LINE
  5
14F6
  8
CENTERLINE
  6
CONTINUOUS
 10
51.655618
 20
49.708996
 30
0.0
 11
52.303618
 21
49.708996
 31
0.0
  0
LINE
  5
14F7
  8
CENTERLINE
  6
CONTINUOUS
 10
54.719618
 20
48.458996
 30
0.0
 11
55.439618
 21
48.458996
 31
0.0
  0
POLYLINE
  5
14F8
  8
0
 66
     1
 10
0.0
 20
0.0
 30
0.0
 70
     1
  0
VERTEX
  5
32DD
  8
0
 10
54.579618
 20
48.268996
 30
0.0
  0
VERTEX
  5
32DE
  8
0
 10
55.079618
 20
48.268996
 30
0.0
 42
1.0
  0
VERTEX
  5
32DF
  8
0
 10
55.079618
 20
48.648996
 30
0.0
  0
VERTEX
  5
32E0
  8
0
 10
54.579618
 20
48.648996
 30
0.0
 42
1.0
  0
SEQEND
  5
32E1
  8
0
  0
LINE
  5
14F9
  8
CENTERLINE
  6
CONTINUOUS
 10
54.579618
 20
48.098996
 30
0.0
 11
54.579618
 21
48.818996
 31
0.0
  0
LINE
  5
14FA
  8
CENTERLINE
  6
CONTINUOUS
 10
55.079618
 20
48.098996
 30
0.0
 11
55.079618
 21
48.818996
 31
0.0
  0
LINE
  5
14FB
  8
CENTERLINE
  6
CONTINUOUS
 10
54.755618
 20
49.708996
 30
0.0
 11
55.403618
 21
49.708996
 31
0.0
  0
POLYLINE
  5
14FC
  8
0
 66
     1
 10
0.0
 20
0.0
 30
0.0
 70
     1
  0
VERTEX
  5
32E2
  8
0
 10
54.579618
 20
49.518996
 30
0.0
  0
VERTEX
  5
32E3
  8
0
 10
55.079618
 20
49.518996
 30
0.0
 42
1.0
  0
VERTEX
  5
32E4
  8
0
 10
55.079618
 20
49.898996
 30
0.0
  0
VERTEX
  5
32E5
  8
0
 10
54.579618
 20
49.898996
 30
0.0
 42
1.0
  0
SEQEND
  5
32E6
  8
0
  0
LINE
  5
14FD
  8
CENTERLINE
  6
CONTINUOUS
 10
54.255618
 20
49.708996
 30
0.0
 11
54.903618
 21
49.708996
 31
0.0
  0
LINE
  5
14FE
  8
CENTERLINE
  6
CONTINUOUS
 10
54.579618
 20
49.384996
 30
0.0
 11
54.579618
 21
50.032996
 31
0.0
  0
LINE
  5
14FF
  8
CENTERLINE
  6
CONTINUOUS
 10
55.079618
 20
49.384996
 30
0.0
 11
55.079618
 21
50.032996
 31
0.0
  0
POLYLINE
  5
1500
  8
HIDDEN
 66
     1
 10
0.0
 20
0.0
 30
0.0
  0
VERTEX
  5
32E7
  8
HIDDEN
 10
52.495513
 20
51.84915
 30
0.0
  0
VERTEX
  5
32E8
  8
HIDDEN
 10
52.495513
 20
51.958996
 30
0.0
  0
VERTEX
  5
32E9
  8
HIDDEN
 10
52.305513
 20
51.958996
 30
0.0
  0
VERTEX
  5
32EA
  8
HIDDEN
 10
52.305513
 20
51.84915
 30
0.0
  0
SEQEND
  5
32EB
  8
HIDDEN
  0
POLYLINE
  5
1501
  8
HIDDEN
 66
     1
 10
0.0
 20
0.0
 30
0.0
  0
VERTEX
  5
32EC
  8
HIDDEN
 10
51.615513
 20
51.84915
 30
0.0
  0
VERTEX
  5
32ED
  8
HIDDEN
 10
51.615513
 20
51.958996
 30
0.0
  0
VERTEX
  5
32EE
  8
HIDDEN
 10
51.425513
 20
51.958996
 30
0.0
  0
VERTEX
  5
32EF
  8
HIDDEN
 10
51.425513
 20
51.84915
 30
0.0
  0
SEQEND
  5
32F0
  8
HIDDEN
  0
POLYLINE
  5
1502
  8
HIDDEN
 66
     1
 10
0.0
 20
0.0
 30
0.0
  0
VERTEX
  5
32F1
  8
HIDDEN
 10
52.055513
 20
51.84915
 30
0.0
  0
VERTEX
  5
32F2
  8
HIDDEN
 10
52.055513
 20
51.958996
 30
0.0
  0
VERTEX
  5
32F3
  8
HIDDEN
 10
51.865513
 20
51.958996
 30
0.0
  0
VERTEX
  5
32F4
  8
HIDDEN
 10
51.865513
 20
51.84915
 30
0.0
  0
SEQEND
  5
32F5
  8
HIDDEN
  0
POLYLINE
  5
1503
  8
HIDDEN
 66
     1
 10
0.0
 20
0.0
 30
0.0
  0
VERTEX
  5
32F6
  8
HIDDEN
 10
53.375513
 20
51.84915
 30
0.0
  0
VERTEX
  5
32F7
  8
HIDDEN
 10
53.375513
 20
51.958996
 30
0.0
  0
VERTEX
  5
32F8
  8
HIDDEN
 10
53.185513
 20
51.958996
 30
0.0
  0
VERTEX
  5
32F9
  8
HIDDEN
 10
53.185513
 20
51.84915
 30
0.0
  0
SEQEND
  5
32FA
  8
HIDDEN
  0
POLYLINE
  5
1504
  8
HIDDEN
 66
     1
 10
0.0
 20
0.0
 30
0.0
  0
VERTEX
  5
32FB
  8
HIDDEN
 10
52.935513
 20
51.84915
 30
0.0
  0
VERTEX
  5
32FC
  8
HIDDEN
 10
52.935513
 20
51.958996
 30
0.0
  0
VERTEX
  5
32FD
  8
HIDDEN
 10
52.745513
 20
51.958996
 30
0.0
  0
VERTEX
  5
32FE
  8
HIDDEN
 10
52.745513
 20
51.84915
 30
0.0
  0
SEQEND
  5
32FF
  8
HIDDEN
  0
POLYLINE
  5
1505
  8
HIDDEN
 66
     1
 10
0.0
 20
0.0
 30
0.0
  0
VERTEX
  5
3300
  8
HIDDEN
 10
54.695513
 20
51.84915
 30
0.0
  0
VERTEX
  5
3301
  8
HIDDEN
 10
54.695513
 20
51.958996
 30
0.0
  0
VERTEX
  5
3302
  8
HIDDEN
 10
54.505513
 20
51.958996
 30
0.0
  0
VERTEX
  5
3303
  8
HIDDEN
 10
54.505513
 20
51.84915
 30
0.0
  0
SEQEND
  5
3304
  8
HIDDEN
  0
POLYLINE
  5
1506
  8
HIDDEN
 66
     1
 10
0.0
 20
0.0
 30
0.0
  0
VERTEX
  5
3305
  8
HIDDEN
 10
54.255513
 20
51.84915
 30
0.0
  0
VERTEX
  5
3306
  8
HIDDEN
 10
54.255513
 20
51.958996
 30
0.0
  0
VERTEX
  5
3307
  8
HIDDEN
 10
54.065513
 20
51.958996
 30
0.0
  0
VERTEX
  5
3308
  8
HIDDEN
 10
54.065513
 20
51.84915
 30
0.0
  0
SEQEND
  5
3309
  8
HIDDEN
  0
POLYLINE
  5
1507
  8
HIDDEN
 66
     1
 10
0.0
 20
0.0
 30
0.0
  0
VERTEX
  5
330A
  8
HIDDEN
 10
53.815513
 20
51.84915
 30
0.0
  0
VERTEX
  5
330B
  8
HIDDEN
 10
53.815513
 20
51.958996
 30
0.0
  0
VERTEX
  5
330C
  8
HIDDEN
 10
53.625513
 20
51.958996
 30
0.0
  0
VERTEX
  5
330D
  8
HIDDEN
 10
53.625513
 20
51.84915
 30
0.0
  0
SEQEND
  5
330E
  8
HIDDEN
  0
POLYLINE
  5
1508
  8
HIDDEN
 66
     1
 10
0.0
 20
0.0
 30
0.0
  0
VERTEX
  5
330F
  8
HIDDEN
 10
55.575513
 20
51.84915
 30
0.0
  0
VERTEX
  5
3310
  8
HIDDEN
 10
55.575513
 20
51.958996
 30
0.0
  0
VERTEX
  5
3311
  8
HIDDEN
 10
55.385513
 20
51.958996
 30
0.0
  0
VERTEX
  5
3312
  8
HIDDEN
 10
55.385513
 20
51.84915
 30
0.0
  0
SEQEND
  5
3313
  8
HIDDEN
  0
POLYLINE
  5
1509
  8
HIDDEN
 66
     1
 10
0.0
 20
0.0
 30
0.0
  0
VERTEX
  5
3314
  8
HIDDEN
 10
55.135513
 20
51.84915
 30
0.0
  0
VERTEX
  5
3315
  8
HIDDEN
 10
55.135513
 20
51.958996
 30
0.0
  0
VERTEX
  5
3316
  8
HIDDEN
 10
54.945513
 20
51.958996
 30
0.0
  0
VERTEX
  5
3317
  8
HIDDEN
 10
54.945513
 20
51.84915
 30
0.0
  0
SEQEND
  5
3318
  8
HIDDEN
  0
LINE
  5
150A
  8
CENTERLINE
  6
CONTINUOUS
 10
59.488799
 20
48.458996
 30
0.0
 11
60.568799
 21
48.458996
 31
0.0
  0
POLYLINE
  5
150D
  8
0
 66
     1
 10
0.0
 20
0.0
 30
0.0
  0
VERTEX
  5
3319
  8
0
 10
56.015513
 20
50.708996
 30
0.0
  0
VERTEX
  5
331A
  8
0
 10
56.015513
 20
51.708996
 30
0.0
  0
SEQEND
  5
331B
  8
0
  0
POLYLINE
  5
150E
  8
0
 66
     1
 10
0.0
 20
0.0
 30
0.0
  0
VERTEX
  5
331C
  8
0
 10
59.095513
 20
50.708996
 30
0.0
  0
VERTEX
  5
331D
  8
0
 10
59.095513
 20
51.708996
 30
0.0
  0
SEQEND
  5
331E
  8
0
  0
POLYLINE
  5
150F
  8
0
 66
     1
 10
0.0
 20
0.0
 30
0.0
  0
VERTEX
  5
331F
  8
0
 10
58.905513
 20
51.708996
 30
0.0
  0
VERTEX
  5
3320
  8
0
 10
58.905513
 20
50.708996
 30
0.0
  0
VERTEX
  5
3321
  8
0
 10
59.095513
 20
50.708996
 30
0.0
  0
SEQEND
  5
3322
  8
0
  0
POLYLINE
  5
1510
  8
0
 66
     1
 10
0.0
 20
0.0
 30
0.0
  0
VERTEX
  5
3323
  8
0
 10
58.655513
 20
50.708996
 30
0.0
  0
VERTEX
  5
3324
  8
0
 10
58.655513
 20
51.708996
 30
0.0
  0
SEQEND
  5
3325
  8
0
  0
POLYLINE
  5
1511
  8
0
 66
     1
 10
0.0
 20
0.0
 30
0.0
  0
VERTEX
  5
3326
  8
0
 10
58.465513
 20
51.708996
 30
0.0
  0
VERTEX
  5
3327
  8
0
 10
58.465513
 20
50.708996
 30
0.0
  0
VERTEX
  5
3328
  8
0
 10
58.655513
 20
50.708996
 30
0.0
  0
SEQEND
  5
3329
  8
0
  0
POLYLINE
  5
1512
  8
0
 66
     1
 10
0.0
 20
0.0
 30
0.0
  0
VERTEX
  5
332A
  8
0
 10
58.215513
 20
50.708996
 30
0.0
  0
VERTEX
  5
332B
  8
0
 10
58.215513
 20
51.708996
 30
0.0
  0
SEQEND
  5
332C
  8
0
  0
POLYLINE
  5
1513
  8
0
 66
     1
 10
0.0
 20
0.0
 30
0.0
  0
VERTEX
  5
332D
  8
0
 10
58.025513
 20
51.708996
 30
0.0
  0
VERTEX
  5
332E
  8
0
 10
58.025513
 20
50.708996
 30
0.0
  0
VERTEX
  5
332F
  8
0
 10
58.215513
 20
50.708996
 30
0.0
  0
SEQEND
  5
3330
  8
0
  0
POLYLINE
  5
1514
  8
0
 66
     1
 10
0.0
 20
0.0
 30
0.0
  0
VERTEX
  5
3331
  8
0
 10
57.775513
 20
50.708996
 30
0.0
  0
VERTEX
  5
3332
  8
0
 10
57.775513
 20
51.708996
 30
0.0
  0
SEQEND
  5
3333
  8
0
  0
POLYLINE
  5
1515
  8
0
 66
     1
 10
0.0
 20
0.0
 30
0.0
  0
VERTEX
  5
3334
  8
0
 10
57.585513
 20
51.708996
 30
0.0
  0
VERTEX
  5
3335
  8
0
 10
57.585513
 20
50.708996
 30
0.0
  0
VERTEX
  5
3336
  8
0
 10
57.775513
 20
50.708996
 30
0.0
  0
SEQEND
  5
3337
  8
0
  0
POLYLINE
  5
1516
  8
0
 66
     1
 10
0.0
 20
0.0
 30
0.0
  0
VERTEX
  5
3338
  8
0
 10
57.335513
 20
50.708996
 30
0.0
  0
VERTEX
  5
3339
  8
0
 10
57.335513
 20
51.708996
 30
0.0
  0
SEQEND
  5
333A
  8
0
  0
POLYLINE
  5
1517
  8
0
 66
     1
 10
0.0
 20
0.0
 30
0.0
  0
VERTEX
  5
333B
  8
0
 10
57.145513
 20
51.708996
 30
0.0
  0
VERTEX
  5
333C
  8
0
 10
57.145513
 20
50.708996
 30
0.0
  0
VERTEX
  5
333D
  8
0
 10
57.335513
 20
50.708996
 30
0.0
  0
SEQEND
  5
333E
  8
0
  0
POLYLINE
  5
1518
  8
0
 66
     1
 10
0.0
 20
0.0
 30
0.0
  0
VERTEX
  5
333F
  8
0
 10
56.895513
 20
50.708996
 30
0.0
  0
VERTEX
  5
3340
  8
0
 10
56.895513
 20
51.708996
 30
0.0
  0
SEQEND
  5
3341
  8
0
  0
POLYLINE
  5
1519
  8
0
 66
     1
 10
0.0
 20
0.0
 30
0.0
  0
VERTEX
  5
3342
  8
0
 10
56.705513
 20
51.708996
 30
0.0
  0
VERTEX
  5
3343
  8
0
 10
56.705513
 20
50.708996
 30
0.0
  0
VERTEX
  5
3344
  8
0
 10
56.895513
 20
50.708996
 30
0.0
  0
SEQEND
  5
3345
  8
0
  0
POLYLINE
  5
151A
  8
0
 66
     1
 10
0.0
 20
0.0
 30
0.0
  0
VERTEX
  5
3346
  8
0
 10
56.455513
 20
50.708996
 30
0.0
  0
VERTEX
  5
3347
  8
0
 10
56.455513
 20
51.708996
 30
0.0
  0
SEQEND
  5
3348
  8
0
  0
POLYLINE
  5
151B
  8
0
 66
     1
 10
0.0
 20
0.0
 30
0.0
  0
VERTEX
  5
3349
  8
0
 10
56.265513
 20
51.708996
 30
0.0
  0
VERTEX
  5
334A
  8
0
 10
56.265513
 20
50.708996
 30
0.0
  0
VERTEX
  5
334B
  8
0
 10
56.455513
 20
50.708996
 30
0.0
  0
SEQEND
  5
334C
  8
0
  0
LINE
  5
151C
  8
CENTERLINE
  6
CONTINUOUS
 10
60.028799
 20
47.918996
 30
0.0
 11
60.028799
 21
48.998996
 31
0.0
  0
CIRCLE
  5
151D
  8
0
 10
60.028799
 20
48.458996
 30
0.0
 40
0.21875
  0
TEXT
  5
151E
  8
DIMENSION
 10
59.36601
 20
48.541276
 30
0.0
 40
0.333325
  1
"A"
 41
0.8
  7
MASTER
  0
POLYLINE
  5
151F
  8
HIDDEN
 66
     1
 10
0.0
 20
0.0
 30
0.0
  0
VERTEX
  5
334D
  8
HIDDEN
 10
58.215513
 20
51.84915
 30
0.0
  0
VERTEX
  5
334E
  8
HIDDEN
 10
58.215513
 20
51.958996
 30
0.0
  0
VERTEX
  5
334F
  8
HIDDEN
 10
58.025513
 20
51.958996
 30
0.0
  0
VERTEX
  5
3350
  8
HIDDEN
 10
58.025513
 20
51.84915
 30
0.0
  0
SEQEND
  5
3351
  8
HIDDEN
  0
LINE
  5
1520
  8
CENTERLINE
  6
CONTINUOUS
 10
56.281313
 20
52.234447
 30
0.0
 11
56.281313
 21
53.170447
 31
0.0
  0
POLYLINE
  5
1521
  8
HIDDEN
 66
     1
 10
0.0
 20
0.0
 30
0.0
  0
VERTEX
  5
3352
  8
HIDDEN
 10
56.895513
 20
51.84915
 30
0.0
  0
VERTEX
  5
3353
  8
HIDDEN
 10
56.895513
 20
51.958996
 30
0.0
  0
VERTEX
  5
3354
  8
HIDDEN
 10
56.705513
 20
51.958996
 30
0.0
  0
VERTEX
  5
3355
  8
HIDDEN
 10
56.705513
 20
51.84915
 30
0.0
  0
SEQEND
  5
3356
  8
HIDDEN
  0
POLYLINE
  5
1522
  8
HIDDEN
 66
     1
 10
0.0
 20
0.0
 30
0.0
  0
VERTEX
  5
3357
  8
HIDDEN
 10
56.455513
 20
51.84915
 30
0.0
  0
VERTEX
  5
3358
  8
HIDDEN
 10
56.455513
 20
51.958996
 30
0.0
  0
VERTEX
  5
3359
  8
HIDDEN
 10
56.265513
 20
51.958996
 30
0.0
  0
VERTEX
  5
335A
  8
HIDDEN
 10
56.265513
 20
51.84915
 30
0.0
  0
SEQEND
  5
335B
  8
HIDDEN
  0
LINE
  5
1523
  8
0
 10
56.399618
 20
52.638996
 30
0.0
 11
56.159618
 21
52.638996
 31
0.0
  0
POLYLINE
  5
1524
  8
HIDDEN
 66
     1
 10
0.0
 20
0.0
 30
0.0
  0
VERTEX
  5
335C
  8
HIDDEN
 10
57.775513
 20
51.84915
 30
0.0
  0
VERTEX
  5
335D
  8
HIDDEN
 10
57.775513
 20
51.958996
 30
0.0
  0
VERTEX
  5
335E
  8
HIDDEN
 10
57.585513
 20
51.958996
 30
0.0
  0
VERTEX
  5
335F
  8
HIDDEN
 10
57.585513
 20
51.84915
 30
0.0
  0
SEQEND
  5
3360
  8
HIDDEN
  0
POLYLINE
  5
1525
  8
HIDDEN
 66
     1
 10
0.0
 20
0.0
 30
0.0
  0
VERTEX
  5
3361
  8
HIDDEN
 10
57.335513
 20
51.84915
 30
0.0
  0
VERTEX
  5
3362
  8
HIDDEN
 10
57.335513
 20
51.958996
 30
0.0
  0
VERTEX
  5
3363
  8
HIDDEN
 10
57.145513
 20
51.958996
 30
0.0
  0
VERTEX
  5
3364
  8
HIDDEN
 10
57.145513
 20
51.84915
 30
0.0
  0
SEQEND
  5
3365
  8
HIDDEN
  0
LINE
  5
1526
  8
CENTERLINE
  6
CONTINUOUS
 10
59.528134
 20
52.342447
 30
0.0
 11
59.528134
 21
53.062447
 31
0.0
  0
POLYLINE
  5
1527
  8
HIDDEN
 66
     1
 10
0.0
 20
0.0
 30
0.0
  0
VERTEX
  5
3366
  8
HIDDEN
 10
59.095513
 20
51.84915
 30
0.0
  0
VERTEX
  5
3367
  8
HIDDEN
 10
59.095513
 20
51.958996
 30
0.0
  0
VERTEX
  5
3368
  8
HIDDEN
 10
58.905513
 20
51.958996
 30
0.0
  0
VERTEX
  5
3369
  8
HIDDEN
 10
58.905513
 20
51.84915
 30
0.0
  0
SEQEND
  5
336A
  8
HIDDEN
  0
POLYLINE
  5
1528
  8
HIDDEN
 66
     1
 10
0.0
 20
0.0
 30
0.0
  0
VERTEX
  5
336B
  8
HIDDEN
 10
58.655513
 20
51.84915
 30
0.0
  0
VERTEX
  5
336C
  8
HIDDEN
 10
58.655513
 20
51.958996
 30
0.0
  0
VERTEX
  5
336D
  8
HIDDEN
 10
58.465513
 20
51.958996
 30
0.0
  0
VERTEX
  5
336E
  8
HIDDEN
 10
58.465513
 20
51.84915
 30
0.0
  0
SEQEND
  5
336F
  8
HIDDEN
  0
LINE
  5
152B
  8
0
 10
70.550548
 20
21.933924
 30
0.0
 11
83.287331
 21
21.933924
 31
0.0
  0
LINE
  5
152C
  8
0
 10
80.412789
 20
24.933924
 30
0.0
 11
83.287331
 21
22.059382
 31
0.0
  0
LINE
  5
152D
  8
0
 10
83.277331
 20
33.859705
 30
0.0
 11
82.412789
 21
33.859705
 31
0.0
  0
LINE
  5
152E
  8
0
 10
83.277331
 20
33.929705
 30
0.0
 11
82.412789
 21
33.929705
 31
0.0
  0
LINE
  5
152F
  8
0
 10
80.412789
 20
33.789705
 30
0.0
 11
83.417331
 21
33.789705
 31
0.0
  0
LINE
  5
1530
  8
0
 10
70.550548
 20
21.933924
 30
0.0
 11
83.287331
 21
21.933924
 31
0.0
  0
LINE
  5
1531
  8
CENTERLINE
 10
83.638175
 20
32.434705
 30
0.0
 11
82.692148
 21
32.434705
 31
0.0
  0
LINE
  5
1532
  8
CENTERLINE
 10
83.638175
 20
27.184705
 30
0.0
 11
82.692148
 21
27.184705
 31
0.0
  0
LINE
  5
1533
  8
HIDDEN
 10
70.550548
 20
22.003924
 30
0.0
 11
83.287331
 21
22.003924
 31
0.0
  0
LINE
  5
1534
  8
CENTERLINE
 10
83.703747
 20
24.434705
 30
0.0
 11
82.983747
 21
24.434705
 31
0.0
  0
LINE
  5
156E
  8
0
 10
70.550548
 20
24.933924
 30
0.0
 11
80.412789
 21
24.933924
 31
0.0
  0
LINE
  5
1571
  8
0
 10
70.550548
 20
21.933924
 30
0.0
 11
70.550548
 21
24.933924
 31
0.0
  0
LINE
  5
1572
  8
CENTERLINE
  6
CONTINUOUS
 10
71.060548
 20
22.933924
 30
0.0
 11
71.780548
 21
22.933924
 31
0.0
  0
LINE
  5
1573
  8
0
 10
70.490548
 20
23.433924
 30
0.0
 11
70.490548
 21
22.063924
 31
0.0
  0
LINE
  5
1574
  8
0
 10
70.420548
 20
23.433924
 30
0.0
 11
70.420548
 21
22.063924
 31
0.0
  0
ARC
  5
1575
  8
0
 10
70.550548
 20
22.063924
 30
0.0
 40
0.13
 50
180.0
 51
270.0
  0
ARC
  5
1576
  8
0
 10
70.550548
 20
22.063924
 30
0.0
 40
0.06
 50
180.0
 51
270.0
  0
LINE
  5
1577
  8
0
 10
70.420548
 20
23.433924
 30
0.0
 11
70.490548
 21
23.433924
 31
0.0
  0
CIRCLE
  5
1578
  8
0
 10
71.420548
 20
22.933924
 30
0.0
 40
0.068
  0
LINE
  5
1579
  8
CENTERLINE
  6
CONTINUOUS
 10
71.420548
 20
22.573924
 30
0.0
 11
71.420548
 21
23.293924
 31
0.0
  0
LINE
  5
157C
  8
0
 10
80.412789
 20
24.933924
 30
0.0
 11
80.412789
 21
33.789705
 31
0.0
  0
LINE
  5
157D
  8
0
 10
75.920548
 20
24.933924
 30
0.0
 11
80.412789
 21
24.933924
 31
0.0
  0
LINE
  5
157F
  8
CENTERLINE
  6
CONTINUOUS
 10
79.560548
 20
22.933924
 30
0.0
 11
80.280548
 21
22.933924
 31
0.0
  0
CIRCLE
  5
1580
  8
0
 10
79.920548
 20
22.933924
 30
0.0
 40
0.068
  0
LINE
  5
1581
  8
CENTERLINE
  6
CONTINUOUS
 10
79.920548
 20
22.573924
 30
0.0
 11
79.920548
 21
23.293924
 31
0.0
  0
LINE
  5
1582
  8
HIDDEN
 10
82.972331
 20
27.059705
 30
0.0
 11
82.972331
 21
27.309705
 31
0.0
  0
LINE
  5
1583
  8
HIDDEN
 10
83.068512
 20
27.309705
 30
0.0
 11
82.972331
 21
27.309705
 31
0.0
  0
LINE
  5
1584
  8
HIDDEN
 10
83.071776
 20
27.059705
 30
0.0
 11
82.972331
 21
27.059705
 31
0.0
  0
CIRCLE
  5
1585
  8
0
 10
82.417331
 20
31.429705
 30
0.0
 40
0.068
  0
LINE
  5
1586
  8
CENTERLINE
  6
CONTINUOUS
 10
82.417331
 20
31.069705
 30
0.0
 11
82.417331
 21
31.789705
 31
0.0
  0
LINE
  5
1587
  8
CENTERLINE
  6
CONTINUOUS
 10
82.057331
 20
31.429705
 30
0.0
 11
82.777331
 21
31.429705
 31
0.0
  0
LINE
  5
1588
  8
HIDDEN
 10
82.972331
 20
32.309705
 30
0.0
 11
82.972331
 21
32.559705
 31
0.0
  0
LINE
  5
1589
  8
HIDDEN
 10
83.086535
 20
32.559705
 30
0.0
 11
82.972331
 21
32.559705
 31
0.0
  0
LINE
  5
158A
  8
HIDDEN
 10
83.083619
 20
32.309705
 30
0.0
 11
82.972331
 21
32.309705
 31
0.0
  0
LINE
  5
158B
  8
0
 10
82.412789
 20
33.929705
 30
0.0
 11
82.412789
 21
33.859705
 31
0.0
  0
LINE
  5
158C
  8
0
 10
83.417331
 20
22.063924
 30
0.0
 11
83.417331
 21
33.789705
 31
0.0
  0
LINE
  5
158D
  8
HIDDEN
 10
83.347331
 20
22.063924
 30
0.0
 11
83.347331
 21
33.789705
 31
0.0
  0
ARC
  5
158F
  8
0
  6
CONTINUOUS
 10
83.287331
 20
22.063924
 30
0.0
 40
0.13
 50
270.0
 51
0.0
  0
LINE
  5
1590
  8
HIDDEN
 10
83.347331
 20
27.309705
 30
0.0
 11
83.238263
 21
27.309705
 31
0.0
  0
LINE
  5
1591
  8
HIDDEN
 10
83.347331
 20
27.059705
 30
0.0
 11
83.234999
 21
27.059705
 31
0.0
  0
LINE
  5
1592
  8
HIDDEN
 10
83.347331
 20
32.559705
 30
0.0
 11
83.232341
 21
32.559705
 31
0.0
  0
LINE
  5
1593
  8
HIDDEN
 10
83.347331
 20
32.309705
 30
0.0
 11
83.244005
 21
32.309705
 31
0.0
  0
ARC
  5
1594
  8
0
 10
83.277331
 20
33.789705
 30
0.0
 40
0.14
 50
0.0
 51
90.0
  0
ARC
  5
1595
  8
0
 10
83.277331
 20
33.789705
 30
0.0
 40
0.07
 50
0.0
 51
90.0
  0
CIRCLE
  5
159D
  8
0
 10
47.560513
 20
46.708996
 30
0.0
 40
0.19
  0
LINE
  5
159E
  8
CENTERLINE
  6
CONTINUOUS
 10
46.887076
 20
46.708996
 30
0.0
 11
48.233951
 21
46.708996
 31
0.0
  0
LINE
  5
159F
  8
CENTERLINE
  6
CONTINUOUS
 10
47.560513
 20
46.035558
 30
0.0
 11
47.560513
 21
47.382433
 31
0.0
  0
LINE
  5
19E2
  8
NOTES
 10
68.969919
 20
54.40034
 30
0.0
 11
71.366079
 21
54.40034
 31
0.0
  0
TEXT
  5
19E3
  8
NOTES
 10
68.969919
 20
54.565793
 30
0.0
 40
0.666663
  1
NOTES:
 41
0.8
  7
MASTER
  0
TEXT
  5
19E4
  8
NOTES
 10
68.412285
 20
53.388254
 30
0.0
 40
0.666663
  1
 MATERIAL: #12GA (.104) STEEL
 41
0.8
  7
MASTER
  0
TEXT
  5
19E5
  8
NOTES
 10
68.412285
 20
52.475337
 30
0.0
 40
0.666663
  1
 FINISH:
 41
0.8
  7
MASTER
  0
TEXT
  5
19E7
  8
NOTES
 10
68.412285
 20
51.510099
 30
0.0
 40
0.666663
  1
  PRODUCT CODE - 312E
 41
0.8
  7
MASTER
  0
TEXT
  5
19E8
  8
NOTES
 10
68.412285
 20
50.624535
 30
0.0
 40
0.666663
  1
  COLOR - PEBBLE GRAY (BEIGE)
 41
0.8
  7
MASTER
  0
TEXT
  5
19E9
  8
NOTES
 10
68.412285
 20
49.602208
 30
0.0
 40
0.666663
  1
  POWDER TYPE - POLYESTER
 41
0.8
  7
MASTER
  0
TEXT
  5
19EA
  8
0
 10
68.12498
 20
45.823601
 30
0.0
 40
0.44928
  1
  
  0
LINE
  5
19ED
  8
0
 10
42.718261
 20
11.999925
 30
0.0
 11
42.718261
 21
56.056818
 31
0.0
  0
LINE
  5
1F6E
  8
0
 10
20.439598
 20
22.098852
 30
0.0
 11
20.439598
 21
34.024633
 31
0.0
  0
LINE
  5
1F6F
  8
0
 10
5.30139
 20
22.098852
 30
0.0
 11
5.30139
 21
34.024633
 31
0.0
  0
LINE
  5
1F70
  8
HIDDEN
 10
5.37139
 20
22.098852
 30
0.0
 11
5.37139
 21
34.024633
 31
0.0
  0
LINE
  5
1F71
  8
HIDDEN
 10
20.369598
 20
22.098852
 30
0.0
 11
20.369598
 21
34.024633
 31
0.0
  0
LINE
  5
1F77
  8
0
 10
5.30139
 20
22.098852
 30
0.0
 11
20.439598
 21
22.098852
 31
0.0
  0
LINE
  5
1F7B
  8
CENTERLINE
 10
7.373963
 20
22.738852
 30
0.0
 11
7.373963
 21
23.458852
 31
0.0
  0
CIRCLE
  5
1F7F
  8
0
 10
7.373963
 20
23.098852
 30
0.0
 40
0.0805
  0
LINE
  5
1F84
  8
CENTERLINE
 10
18.373963
 20
22.738852
 30
0.0
 11
18.373963
 21
23.458852
 31
0.0
  0
CIRCLE
  5
1F88
  8
0
 10
18.373963
 20
23.098852
 30
0.0
 40
0.0805
  0
LINE
  5
1F8E
  8
0
 10
7.818985
 20
49.51776
 30
0.0
 11
8.005985
 21
49.51776
 31
0.0
  0
LINE
  5
1F8F
  8
0
 10
8.005985
 20
47.76776
 30
0.0
 11
7.818985
 21
47.76776
 31
0.0
  0
LINE
  5
1F90
  8
0
 10
7.818985
 20
51.76776
 30
0.0
 11
8.005985
 21
51.76776
 31
0.0
  0
LINE
  5
1F91
  8
0
 10
8.005985
 20
50.01776
 30
0.0
 11
7.818985
 21
50.01776
 31
0.0
  0
LINE
  5
1F92
  8
0
 10
8.018522
 20
33.161892
 30
0.0
 11
8.205522
 21
33.161892
 31
0.0
  0
LINE
  5
1F93
  8
0
 10
8.205522
 20
31.411892
 30
0.0
 11
8.018522
 21
31.411892
 31
0.0
  0
LINE
  5
1F94
  8
0
  6
CONTINUOUS
 10
5.101852
 20
52.76776
 30
0.0
 11
20.24006
 21
52.76776
 31
0.0
  0
LINE
  5
1F95
  8
HIDDEN
 10
5.171852
 20
39.76776
 30
0.0
 11
20.17006
 21
39.76776
 31
0.0
  0
LINE
  5
1F96
  8
0
 10
5.171852
 20
39.69776
 30
0.0
 11
20.17006
 21
39.69776
 31
0.0
  0
LINE
  5
1F97
  8
0
 10
5.44139
 20
34.164633
 30
0.0
 11
20.299598
 21
34.164633
 31
0.0
  0
LINE
  5
1F98
  8
HIDDEN
 10
5.44139
 20
34.094633
 30
0.0
 11
20.299598
 21
34.094633
 31
0.0
  0
LINE
  5
1F99
  8
0
 10
6.70822
 20
49.51776
 30
0.0
 11
6.70822
 21
47.76776
 31
0.0
  0
LINE
  5
1F9A
  8
0
 10
6.52122
 20
47.76776
 30
0.0
 11
6.52122
 21
49.51776
 31
0.0
  0
LINE
  5
1F9B
  8
0
 10
7.386396
 20
47.76776
 30
0.0
 11
7.386396
 21
49.51776
 31
0.0
  0
LINE
  5
1F9C
  8
0
 10
7.573396
 20
49.51776
 30
0.0
 11
7.573396
 21
47.76776
 31
0.0
  0
LINE
  5
1F9D
  8
0
 10
6.953808
 20
47.76776
 30
0.0
 11
6.953808
 21
49.51776
 31
0.0
  0
LINE
  5
1F9E
  8
0
 10
7.140808
 20
49.51776
 30
0.0
 11
7.140808
 21
47.76776
 31
0.0
  0
LINE
  5
1F9F
  8
0
 10
7.818985
 20
47.76776
 30
0.0
 11
7.818985
 21
49.51776
 31
0.0
  0
LINE
  5
1FA0
  8
0
 10
5.101852
 20
39.76776
 30
0.0
 11
5.101852
 21
52.76776
 31
0.0
  0
LINE
  5
1FA1
  8
HIDDEN
 10
5.171852
 20
39.76776
 30
0.0
 11
5.171852
 21
52.76776
 31
0.0
  0
LINE
  5
1FA3
  8
0
 10
6.720757
 20
31.411892
 30
0.0
 11
6.720757
 21
33.161892
 31
0.0
  0
LINE
  5
1FA4
  8
0
 10
6.907757
 20
33.161892
 30
0.0
 11
6.907757
 21
31.411892
 31
0.0
  0
LINE
  5
1FA5
  8
0
 10
7.340346
 20
33.161892
 30
0.0
 11
7.340346
 21
31.411892
 31
0.0
  0
LINE
  5
1FA6
  8
0
 10
7.153346
 20
31.411892
 30
0.0
 11
7.153346
 21
33.161892
 31
0.0
  0
LINE
  5
1FA7
  8
0
 10
7.772934
 20
33.161892
 30
0.0
 11
7.772934
 21
31.411892
 31
0.0
  0
LINE
  5
1FA8
  8
0
 10
7.585934
 20
31.411892
 30
0.0
 11
7.585934
 21
33.161892
 31
0.0
  0
LINE
  5
1FA9
  8
0
 10
8.018522
 20
31.411892
 30
0.0
 11
8.018522
 21
33.161892
 31
0.0
  0
LINE
  5
1FAA
  8
0
 10
6.907757
 20
31.411892
 30
0.0
 11
6.720757
 21
31.411892
 31
0.0
  0
LINE
  5
1FAB
  8
0
 10
7.340346
 20
31.411892
 30
0.0
 11
7.153346
 21
31.411892
 31
0.0
  0
LINE
  5
1FAC
  8
0
 10
7.772934
 20
31.411892
 30
0.0
 11
7.585934
 21
31.411892
 31
0.0
  0
LINE
  5
1FAD
  8
0
 10
6.720757
 20
33.161892
 30
0.0
 11
6.907757
 21
33.161892
 31
0.0
  0
LINE
  5
1FAE
  8
0
 10
7.153346
 20
33.161892
 30
0.0
 11
7.340346
 21
33.161892
 31
0.0
  0
LINE
  5
1FAF
  8
0
 10
7.585934
 20
33.161892
 30
0.0
 11
7.772934
 21
33.161892
 31
0.0
  0
ARC
  5
1FB0
  8
DIMENSION
  6
CONTINUOUS
 10
5.44139
 20
34.024633
 30
0.0
 40
0.07
 50
90.0
 51
180.0
  0
ARC
  5
1FB1
  8
0
 10
5.44139
 20
34.024633
 30
0.0
 40
0.14
 50
90.0
 51
180.0
  0
LINE
  5
1FB2
  8
0
 10
5.171852
 20
39.76776
 30
0.0
 11
5.101852
 21
39.76776
 31
0.0
  0
LINE
  5
1FB3
  8
0
 10
5.171852
 20
39.76776
 30
0.0
 11
5.171852
 21
39.69776
 31
0.0
  0
LINE
  5
1FB5
  8
0
 10
6.70822
 20
47.76776
 30
0.0
 11
6.52122
 21
47.76776
 31
0.0
  0
LINE
  5
1FB6
  8
0
 10
7.140808
 20
47.76776
 30
0.0
 11
6.953808
 21
47.76776
 31
0.0
  0
LINE
  5
1FB7
  8
0
 10
7.573396
 20
47.76776
 30
0.0
 11
7.386396
 21
47.76776
 31
0.0
  0
LINE
  5
1FBA
  8
0
 10
6.70822
 20
51.76776
 30
0.0
 11
6.70822
 21
50.01776
 31
0.0
  0
LINE
  5
1FBB
  8
0
 10
6.52122
 20
50.01776
 30
0.0
 11
6.52122
 21
51.76776
 31
0.0
  0
LINE
  5
1FBC
  8
0
 10
7.386396
 20
50.01776
 30
0.0
 11
7.386396
 21
51.76776
 31
0.0
  0
LINE
  5
1FBD
  8
0
 10
7.573396
 20
51.76776
 30
0.0
 11
7.573396
 21
50.01776
 31
0.0
  0
LINE
  5
1FBE
  8
0
 10
6.953808
 20
50.01776
 30
0.0
 11
6.953808
 21
51.76776
 31
0.0
  0
LINE
  5
1FBF
  8
0
 10
7.140808
 20
51.76776
 30
0.0
 11
7.140808
 21
50.01776
 31
0.0
  0
LINE
  5
1FC0
  8
0
 10
7.818985
 20
50.01776
 30
0.0
 11
7.818985
 21
51.76776
 31
0.0
  0
LINE
  5
1FC1
  8
0
 10
6.70822
 20
50.01776
 30
0.0
 11
6.52122
 21
50.01776
 31
0.0
  0
LINE
  5
1FC2
  8
0
 10
6.52122
 20
49.51776
 30
0.0
 11
6.70822
 21
49.51776
 31
0.0
  0
LINE
  5
1FC3
  8
0
 10
6.953808
 20
49.51776
 30
0.0
 11
7.140808
 21
49.51776
 31
0.0
  0
LINE
  5
1FC4
  8
0
 10
7.140808
 20
50.01776
 30
0.0
 11
6.953808
 21
50.01776
 31
0.0
  0
LINE
  5
1FC5
  8
0
 10
7.386396
 20
49.51776
 30
0.0
 11
7.573396
 21
49.51776
 31
0.0
  0
LINE
  5
1FC6
  8
0
 10
7.573396
 20
50.01776
 30
0.0
 11
7.386396
 21
50.01776
 31
0.0
  0
LINE
  5
1FC7
  8
0
 10
6.52122
 20
51.76776
 30
0.0
 11
6.70822
 21
51.76776
 31
0.0
  0
LINE
  5
1FC8
  8
0
 10
6.953808
 20
51.76776
 30
0.0
 11
7.140808
 21
51.76776
 31
0.0
  0
LINE
  5
1FC9
  8
0
 10
7.386396
 20
51.76776
 30
0.0
 11
7.573396
 21
51.76776
 31
0.0
  0
LINE
  5
1FCA
  8
0
 10
18.633693
 20
49.51776
 30
0.0
 11
18.633693
 21
47.76776
 31
0.0
  0
LINE
  5
1FCB
  8
0
 10
18.820693
 20
47.76776
 30
0.0
 11
18.820693
 21
49.51776
 31
0.0
  0
LINE
  5
1FCE
  8
0
 10
8.871161
 20
47.76776
 30
0.0
 11
8.871161
 21
49.51776
 31
0.0
  0
LINE
  5
1FCF
  8
0
 10
8.684161
 20
49.51776
 30
0.0
 11
8.684161
 21
47.76776
 31
0.0
  0
LINE
  5
1FD0
  8
0
 10
8.005985
 20
49.51776
 30
0.0
 11
8.005985
 21
47.76776
 31
0.0
  0
LINE
  5
1FD1
  8
0
 10
8.438573
 20
49.51776
 30
0.0
 11
8.438573
 21
47.76776
 31
0.0
  0
LINE
  5
1FD2
  8
0
 10
8.251573
 20
47.76776
 30
0.0
 11
8.251573
 21
49.51776
 31
0.0
  0
LINE
  5
1FD3
  8
0
 10
18.388104
 20
47.76776
 30
0.0
 11
18.388104
 21
49.51776
 31
0.0
  0
LINE
  5
1FD4
  8
0
 10
18.201104
 20
49.51776
 30
0.0
 11
18.201104
 21
47.76776
 31
0.0
  0
LINE
  5
1FD5
  8
0
 10
17.955516
 20
47.76776
 30
0.0
 11
17.955516
 21
49.51776
 31
0.0
  0
LINE
  5
1FD6
  8
0
 10
17.768516
 20
49.51776
 30
0.0
 11
17.768516
 21
47.76776
 31
0.0
  0
LINE
  5
1FD7
  8
0
 10
17.522928
 20
47.76776
 30
0.0
 11
17.522928
 21
49.51776
 31
0.0
  0
LINE
  5
1FD8
  8
0
 10
17.335928
 20
49.51776
 30
0.0
 11
17.335928
 21
47.76776
 31
0.0
  0
LINE
  5
1FD9
  8
0
 10
9.549338
 20
47.76776
 30
0.0
 11
9.549338
 21
49.51776
 31
0.0
  0
LINE
  5
1FDA
  8
0
 10
9.736338
 20
49.51776
 30
0.0
 11
9.736338
 21
47.76776
 31
0.0
  0
LINE
  5
1FDB
  8
0
 10
9.11675
 20
47.76776
 30
0.0
 11
9.11675
 21
49.51776
 31
0.0
  0
LINE
  5
1FDC
  8
0
 10
9.30375
 20
49.51776
 30
0.0
 11
9.30375
 21
47.76776
 31
0.0
  0
LINE
  5
1FDD
  8
0
 10
9.981926
 20
49.51776
 30
0.0
 11
9.981926
 21
47.76776
 31
0.0
  0
LINE
  5
1FDE
  8
0
 10
10.168926
 20
47.76776
 30
0.0
 11
10.168926
 21
49.51776
 31
0.0
  0
LINE
  5
1FDF
  8
0
 10
10.414515
 20
49.51776
 30
0.0
 11
10.414515
 21
47.76776
 31
0.0
  0
LINE
  5
1FE0
  8
0
 10
10.601515
 20
47.76776
 30
0.0
 11
10.601515
 21
49.51776
 31
0.0
  0
LINE
  5
1FE1
  8
0
 10
10.847103
 20
49.51776
 30
0.0
 11
10.847103
 21
47.76776
 31
0.0
  0
LINE
  5
1FE2
  8
0
 10
11.034103
 20
47.76776
 30
0.0
 11
11.034103
 21
49.51776
 31
0.0
  0
LINE
  5
1FE3
  8
0
 10
11.279691
 20
49.51776
 30
0.0
 11
11.279691
 21
47.76776
 31
0.0
  0
LINE
  5
1FE4
  8
0
 10
16.038163
 20
49.51776
 30
0.0
 11
16.038163
 21
47.76776
 31
0.0
  0
LINE
  5
1FE5
  8
0
 10
16.225163
 20
47.76776
 30
0.0
 11
16.225163
 21
49.51776
 31
0.0
  0
LINE
  5
1FE6
  8
0
 10
16.470751
 20
49.51776
 30
0.0
 11
16.470751
 21
47.76776
 31
0.0
  0
LINE
  5
1FE7
  8
0
 10
16.657751
 20
47.76776
 30
0.0
 11
16.657751
 21
49.51776
 31
0.0
  0
LINE
  5
1FE8
  8
0
 10
16.903339
 20
49.51776
 30
0.0
 11
16.903339
 21
47.76776
 31
0.0
  0
LINE
  5
1FE9
  8
0
 10
17.090339
 20
47.76776
 30
0.0
 11
17.090339
 21
49.51776
 31
0.0
  0
LINE
  5
1FEA
  8
0
 10
15.792575
 20
47.76776
 30
0.0
 11
15.792575
 21
49.51776
 31
0.0
  0
LINE
  5
1FEB
  8
0
 10
15.605575
 20
49.51776
 30
0.0
 11
15.605575
 21
47.76776
 31
0.0
  0
LINE
  5
1FEC
  8
0
 10
15.359986
 20
47.76776
 30
0.0
 11
15.359986
 21
49.51776
 31
0.0
  0
LINE
  5
1FED
  8
0
 10
15.172986
 20
49.51776
 30
0.0
 11
15.172986
 21
47.76776
 31
0.0
  0
LINE
  5
1FEE
  8
0
 10
14.927398
 20
47.76776
 30
0.0
 11
14.927398
 21
49.51776
 31
0.0
  0
LINE
  5
1FEF
  8
0
 10
14.740398
 20
49.51776
 30
0.0
 11
14.740398
 21
47.76776
 31
0.0
  0
LINE
  5
1FF0
  8
0
 10
14.49481
 20
47.76776
 30
0.0
 11
14.49481
 21
49.51776
 31
0.0
  0
LINE
  5
1FF1
  8
0
 10
14.30781
 20
49.51776
 30
0.0
 11
14.30781
 21
47.76776
 31
0.0
  0
LINE
  5
1FF2
  8
0
 10
14.062221
 20
47.76776
 30
0.0
 11
14.062221
 21
49.51776
 31
0.0
  0
LINE
  5
1FF3
  8
0
 10
13.875221
 20
49.51776
 30
0.0
 11
13.875221
 21
47.76776
 31
0.0
  0
LINE
  5
1FF4
  8
0
 10
13.629633
 20
47.76776
 30
0.0
 11
13.629633
 21
49.51776
 31
0.0
  0
LINE
  5
1FF5
  8
0
 10
13.442633
 20
49.51776
 30
0.0
 11
13.442633
 21
47.76776
 31
0.0
  0
LINE
  5
1FF6
  8
0
 10
13.197045
 20
47.76776
 30
0.0
 11
13.197045
 21
49.51776
 31
0.0
  0
LINE
  5
1FF7
  8
0
 10
13.010045
 20
49.51776
 30
0.0
 11
13.010045
 21
47.76776
 31
0.0
  0
LINE
  5
1FF8
  8
0
 10
12.764456
 20
47.76776
 30
0.0
 11
12.764456
 21
49.51776
 31
0.0
  0
LINE
  5
1FF9
  8
0
 10
12.577456
 20
49.51776
 30
0.0
 11
12.577456
 21
47.76776
 31
0.0
  0
LINE
  5
1FFA
  8
0
 10
12.331868
 20
47.76776
 30
0.0
 11
12.331868
 21
49.51776
 31
0.0
  0
LINE
  5
1FFB
  8
0
 10
12.144868
 20
49.51776
 30
0.0
 11
12.144868
 21
47.76776
 31
0.0
  0
LINE
  5
1FFC
  8
0
 10
11.89928
 20
47.76776
 30
0.0
 11
11.89928
 21
49.51776
 31
0.0
  0
LINE
  5
1FFD
  8
0
 10
11.71228
 20
49.51776
 30
0.0
 11
11.71228
 21
47.76776
 31
0.0
  0
LINE
  5
1FFE
  8
0
 10
11.466691
 20
47.76776
 30
0.0
 11
11.466691
 21
49.51776
 31
0.0
  0
LINE
  5
1FFF
  8
0
 10
20.24006
 20
39.76776
 30
0.0
 11
20.24006
 21
52.76776
 31
0.0
  0
LINE
  5
2000
  8
HIDDEN
 10
20.17006
 20
39.76776
 30
0.0
 11
20.17006
 21
52.76776
 31
0.0
  0
LINE
  5
2003
  8
0
 10
13.396582
 20
33.161892
 30
0.0
 11
13.209582
 21
33.161892
 31
0.0
  0
LINE
  5
2004
  8
0
 10
13.209582
 20
31.411892
 30
0.0
 11
13.396582
 21
31.411892
 31
0.0
  0
LINE
  5
2005
  8
0
 10
10.801052
 20
33.161892
 30
0.0
 11
10.614052
 21
33.161892
 31
0.0
  0
LINE
  5
2006
  8
0
 10
10.614052
 20
31.411892
 30
0.0
 11
10.801052
 21
31.411892
 31
0.0
  0
LINE
  5
2007
  8
0
 10
8.451111
 20
31.411892
 30
0.0
 11
8.451111
 21
33.161892
 31
0.0
  0
LINE
  5
2008
  8
0
 10
8.638111
 20
33.161892
 30
0.0
 11
8.638111
 21
31.411892
 31
0.0
  0
LINE
  5
2009
  8
0
 10
8.205522
 20
33.161892
 30
0.0
 11
8.205522
 21
31.411892
 31
0.0
  0
LINE
  5
200A
  8
0
 10
8.883699
 20
33.161892
 30
0.0
 11
8.883699
 21
31.411892
 31
0.0
  0
LINE
  5
200B
  8
0
 10
9.070699
 20
31.411892
 30
0.0
 11
9.070699
 21
33.161892
 31
0.0
  0
LINE
  5
200C
  8
0
 10
10.614052
 20
33.161892
 30
0.0
 11
10.614052
 21
31.411892
 31
0.0
  0
LINE
  5
200D
  8
0
 10
10.368464
 20
31.411892
 30
0.0
 11
10.368464
 21
33.161892
 31
0.0
  0
LINE
  5
200E
  8
0
 10
10.181464
 20
33.161892
 30
0.0
 11
10.181464
 21
31.411892
 31
0.0
  0
LINE
  5
200F
  8
0
 10
9.503287
 20
33.161892
 30
0.0
 11
9.503287
 21
31.411892
 31
0.0
  0
LINE
  5
2010
  8
0
 10
9.316287
 20
31.411892
 30
0.0
 11
9.316287
 21
33.161892
 31
0.0
  0
LINE
  5
2011
  8
0
 10
9.935876
 20
33.161892
 30
0.0
 11
9.935876
 21
31.411892
 31
0.0
  0
LINE
  5
2012
  8
0
 10
9.748876
 20
31.411892
 30
0.0
 11
9.748876
 21
33.161892
 31
0.0
  0
LINE
  5
2013
  8
0
 10
9.503287
 20
31.411892
 30
0.0
 11
9.316287
 21
31.411892
 31
0.0
  0
LINE
  5
2014
  8
0
 10
8.638111
 20
31.411892
 30
0.0
 11
8.451111
 21
31.411892
 31
0.0
  0
LINE
  5
2015
  8
0
 10
8.883699
 20
31.411892
 30
0.0
 11
9.070699
 21
31.411892
 31
0.0
  0
LINE
  5
2016
  8
0
 10
9.935876
 20
31.411892
 30
0.0
 11
9.748876
 21
31.411892
 31
0.0
  0
LINE
  5
2017
  8
0
 10
10.181464
 20
31.411892
 30
0.0
 11
10.368464
 21
31.411892
 31
0.0
  0
LINE
  5
2018
  8
0
 10
9.316287
 20
33.161892
 30
0.0
 11
9.503287
 21
33.161892
 31
0.0
  0
LINE
  5
2019
  8
0
 10
8.451111
 20
33.161892
 30
0.0
 11
8.638111
 21
33.161892
 31
0.0
  0
LINE
  5
201A
  8
0
 10
9.070699
 20
33.161892
 30
0.0
 11
8.883699
 21
33.161892
 31
0.0
  0
LINE
  5
201B
  8
0
 10
9.748876
 20
33.161892
 30
0.0
 11
9.935876
 21
33.161892
 31
0.0
  0
LINE
  5
201C
  8
0
 10
10.368464
 20
33.161892
 30
0.0
 11
10.181464
 21
33.161892
 31
0.0
  0
LINE
  5
201D
  8
0
 10
11.666229
 20
31.411892
 30
0.0
 11
11.666229
 21
33.161892
 31
0.0
  0
LINE
  5
201E
  8
0
 10
11.911817
 20
33.161892
 30
0.0
 11
11.911817
 21
31.411892
 31
0.0
  0
LINE
  5
201F
  8
0
 10
12.098817
 20
31.411892
 30
0.0
 11
12.098817
 21
33.161892
 31
0.0
  0
LINE
  5
2020
  8
0
 10
12.344406
 20
33.161892
 30
0.0
 11
12.344406
 21
31.411892
 31
0.0
  0
LINE
  5
2021
  8
0
 10
12.531406
 20
31.411892
 30
0.0
 11
12.531406
 21
33.161892
 31
0.0
  0
LINE
  5
2022
  8
0
 10
12.776994
 20
33.161892
 30
0.0
 11
12.776994
 21
31.411892
 31
0.0
  0
LINE
  5
2023
  8
0
 10
12.963994
 20
31.411892
 30
0.0
 11
12.963994
 21
33.161892
 31
0.0
  0
LINE
  5
2024
  8
0
 10
13.209582
 20
33.161892
 30
0.0
 11
13.209582
 21
31.411892
 31
0.0
  0
LINE
  5
2025
  8
0
 10
11.479229
 20
33.161892
 30
0.0
 11
11.479229
 21
31.411892
 31
0.0
  0
LINE
  5
2026
  8
0
 10
11.233641
 20
31.411892
 30
0.0
 11
11.233641
 21
33.161892
 31
0.0
  0
LINE
  5
2027
  8
0
 10
11.046641
 20
33.161892
 30
0.0
 11
11.046641
 21
31.411892
 31
0.0
  0
LINE
  5
2028
  8
0
 10
10.801052
 20
31.411892
 30
0.0
 11
10.801052
 21
33.161892
 31
0.0
  0
LINE
  5
2029
  8
0
 10
11.911817
 20
31.411892
 30
0.0
 11
12.098817
 21
31.411892
 31
0.0
  0
LINE
  5
202A
  8
0
 10
11.046641
 20
31.411892
 30
0.0
 11
11.233641
 21
31.411892
 31
0.0
  0
LINE
  5
202B
  8
0
 10
11.479229
 20
31.411892
 30
0.0
 11
11.666229
 21
31.411892
 31
0.0
  0
LINE
  5
202C
  8
0
 10
12.344406
 20
31.411892
 30
0.0
 11
12.531406
 21
31.411892
 31
0.0
  0
LINE
  5
202D
  8
0
 10
12.776994
 20
31.411892
 30
0.0
 11
12.963994
 21
31.411892
 31
0.0
  0
LINE
  5
202E
  8
0
 10
12.098817
 20
33.161892
 30
0.0
 11
11.911817
 21
33.161892
 31
0.0
  0
LINE
  5
202F
  8
0
 10
11.233641
 20
33.161892
 30
0.0
 11
11.046641
 21
33.161892
 31
0.0
  0
LINE
  5
2030
  8
0
 10
11.666229
 20
33.161892
 30
0.0
 11
11.479229
 21
33.161892
 31
0.0
  0
LINE
  5
2031
  8
0
 10
12.531406
 20
33.161892
 30
0.0
 11
12.344406
 21
33.161892
 31
0.0
  0
LINE
  5
2032
  8
0
 10
12.963994
 20
33.161892
 30
0.0
 11
12.776994
 21
33.161892
 31
0.0
  0
LINE
  5
2033
  8
0
 10
13.396582
 20
31.411892
 30
0.0
 11
13.396582
 21
33.161892
 31
0.0
  0
LINE
  5
2034
  8
0
 10
13.642171
 20
33.161892
 30
0.0
 11
13.642171
 21
31.411892
 31
0.0
  0
LINE
  5
2035
  8
0
 10
13.829171
 20
31.411892
 30
0.0
 11
13.829171
 21
33.161892
 31
0.0
  0
LINE
  5
2036
  8
0
 10
14.074759
 20
33.161892
 30
0.0
 11
14.074759
 21
31.411892
 31
0.0
  0
LINE
  5
2037
  8
0
 10
14.261759
 20
31.411892
 30
0.0
 11
14.261759
 21
33.161892
 31
0.0
  0
LINE
  5
2038
  8
0
 10
14.507347
 20
33.161892
 30
0.0
 11
14.507347
 21
31.411892
 31
0.0
  0
LINE
  5
2039
  8
0
 10
14.694347
 20
31.411892
 30
0.0
 11
14.694347
 21
33.161892
 31
0.0
  0
LINE
  5
203A
  8
0
 10
14.939936
 20
33.161892
 30
0.0
 11
14.939936
 21
31.411892
 31
0.0
  0
LINE
  5
203B
  8
0
 10
15.126936
 20
31.411892
 30
0.0
 11
15.126936
 21
33.161892
 31
0.0
  0
LINE
  5
203C
  8
0
 10
15.372524
 20
33.161892
 30
0.0
 11
15.372524
 21
31.411892
 31
0.0
  0
LINE
  5
203D
  8
0
 10
15.559524
 20
31.411892
 30
0.0
 11
15.559524
 21
33.161892
 31
0.0
  0
LINE
  5
203E
  8
0
 10
15.805112
 20
33.161892
 30
0.0
 11
15.805112
 21
31.411892
 31
0.0
  0
LINE
  5
203F
  8
0
 10
15.992112
 20
31.411892
 30
0.0
 11
15.992112
 21
33.161892
 31
0.0
  0
LINE
  5
2040
  8
0
 10
14.507347
 20
31.411892
 30
0.0
 11
14.694347
 21
31.411892
 31
0.0
  0
LINE
  5
2041
  8
0
 10
13.642171
 20
31.411892
 30
0.0
 11
13.829171
 21
31.411892
 31
0.0
  0
LINE
  5
2042
  8
0
 10
14.074759
 20
31.411892
 30
0.0
 11
14.261759
 21
31.411892
 31
0.0
  0
LINE
  5
2043
  8
0
 10
14.939936
 20
31.411892
 30
0.0
 11
15.126936
 21
31.411892
 31
0.0
  0
LINE
  5
2044
  8
0
 10
15.372524
 20
31.411892
 30
0.0
 11
15.559524
 21
31.411892
 31
0.0
  0
LINE
  5
2045
  8
0
 10
15.805112
 20
31.411892
 30
0.0
 11
15.992112
 21
31.411892
 31
0.0
  0
LINE
  5
2046
  8
0
 10
14.694347
 20
33.161892
 30
0.0
 11
14.507347
 21
33.161892
 31
0.0
  0
LINE
  5
2047
  8
0
 10
13.829171
 20
33.161892
 30
0.0
 11
13.642171
 21
33.161892
 31
0.0
  0
LINE
  5
2048
  8
0
 10
14.261759
 20
33.161892
 30
0.0
 11
14.074759
 21
33.161892
 31
0.0
  0
LINE
  5
2049
  8
0
 10
15.126936
 20
33.161892
 30
0.0
 11
14.939936
 21
33.161892
 31
0.0
  0
LINE
  5
204A
  8
0
 10
15.559524
 20
33.161892
 30
0.0
 11
15.372524
 21
33.161892
 31
0.0
  0
LINE
  5
204B
  8
0
 10
15.992112
 20
33.161892
 30
0.0
 11
15.805112
 21
33.161892
 31
0.0
  0
LINE
  5
204C
  8
0
 10
18.155054
 20
31.411892
 30
0.0
 11
18.155054
 21
33.161892
 31
0.0
  0
LINE
  5
204D
  8
0
 10
17.968054
 20
33.161892
 30
0.0
 11
17.968054
 21
31.411892
 31
0.0
  0
LINE
  5
204E
  8
0
 10
17.535466
 20
33.161892
 30
0.0
 11
17.535466
 21
31.411892
 31
0.0
  0
LINE
  5
204F
  8
0
 10
17.722466
 20
31.411892
 30
0.0
 11
17.722466
 21
33.161892
 31
0.0
  0
LINE
  5
2050
  8
0
 10
17.968054
 20
33.161892
 30
0.0
 11
17.968054
 21
31.411892
 31
0.0
  0
LINE
  5
2051
  8
0
 10
18.155054
 20
31.411892
 30
0.0
 11
18.155054
 21
33.161892
 31
0.0
  0
LINE
  5
2052
  8
0
 10
18.400642
 20
33.161892
 30
0.0
 11
18.400642
 21
31.411892
 31
0.0
  0
LINE
  5
2053
  8
0
 10
18.587642
 20
31.411892
 30
0.0
 11
18.587642
 21
33.161892
 31
0.0
  0
LINE
  5
2054
  8
0
 10
17.289877
 20
31.411892
 30
0.0
 11
17.289877
 21
33.161892
 31
0.0
  0
LINE
  5
2055
  8
0
 10
17.102877
 20
33.161892
 30
0.0
 11
17.102877
 21
31.411892
 31
0.0
  0
LINE
  5
2056
  8
0
 10
16.857289
 20
31.411892
 30
0.0
 11
16.857289
 21
33.161892
 31
0.0
  0
LINE
  5
2057
  8
0
 10
16.670289
 20
33.161892
 30
0.0
 11
16.670289
 21
31.411892
 31
0.0
  0
LINE
  5
2058
  8
0
 10
16.424701
 20
31.411892
 30
0.0
 11
16.424701
 21
33.161892
 31
0.0
  0
LINE
  5
2059
  8
0
 10
16.237701
 20
33.161892
 30
0.0
 11
16.237701
 21
31.411892
 31
0.0
  0
LINE
  5
205A
  8
0
 10
16.670289
 20
31.411892
 30
0.0
 11
16.857289
 21
31.411892
 31
0.0
  0
LINE
  5
205B
  8
0
 10
16.237701
 20
31.411892
 30
0.0
 11
16.424701
 21
31.411892
 31
0.0
  0
LINE
  5
205C
  8
0
 10
17.102877
 20
31.411892
 30
0.0
 11
17.289877
 21
31.411892
 31
0.0
  0
LINE
  5
205D
  8
0
 10
17.968054
 20
31.411892
 30
0.0
 11
18.155054
 21
31.411892
 31
0.0
  0
LINE
  5
205E
  8
0
 10
17.968054
 20
31.411892
 30
0.0
 11
18.155054
 21
31.411892
 31
0.0
  0
LINE
  5
205F
  8
0
 10
17.535466
 20
31.411892
 30
0.0
 11
17.722466
 21
31.411892
 31
0.0
  0
LINE
  5
2060
  8
0
 10
18.400642
 20
31.411892
 30
0.0
 11
18.587642
 21
31.411892
 31
0.0
  0
LINE
  5
2061
  8
0
 10
16.857289
 20
33.161892
 30
0.0
 11
16.670289
 21
33.161892
 31
0.0
  0
LINE
  5
2062
  8
0
 10
16.424701
 20
33.161892
 30
0.0
 11
16.237701
 21
33.161892
 31
0.0
  0
LINE
  5
2063
  8
0
 10
17.289877
 20
33.161892
 30
0.0
 11
17.102877
 21
33.161892
 31
0.0
  0
LINE
  5
2064
  8
0
 10
18.155054
 20
33.161892
 30
0.0
 11
17.968054
 21
33.161892
 31
0.0
  0
LINE
  5
2065
  8
0
 10
18.155054
 20
33.161892
 30
0.0
 11
17.968054
 21
33.161892
 31
0.0
  0
LINE
  5
2066
  8
0
 10
17.722466
 20
33.161892
 30
0.0
 11
17.535466
 21
33.161892
 31
0.0
  0
LINE
  5
2067
  8
0
 10
18.587642
 20
33.161892
 30
0.0
 11
18.400642
 21
33.161892
 31
0.0
  0
LINE
  5
2068
  8
0
 10
13.010045
 20
47.76776
 30
0.0
 11
13.197045
 21
47.76776
 31
0.0
  0
LINE
  5
2069
  8
0
 10
10.414515
 20
47.76776
 30
0.0
 11
10.601515
 21
47.76776
 31
0.0
  0
LINE
  5
206A
  8
0
 10
9.30375
 20
47.76776
 30
0.0
 11
9.11675
 21
47.76776
 31
0.0
  0
LINE
  5
206B
  8
0
 10
8.438573
 20
47.76776
 30
0.0
 11
8.251573
 21
47.76776
 31
0.0
  0
LINE
  5
206C
  8
0
 10
8.684161
 20
47.76776
 30
0.0
 11
8.871161
 21
47.76776
 31
0.0
  0
LINE
  5
206D
  8
0
 10
9.736338
 20
47.76776
 30
0.0
 11
9.549338
 21
47.76776
 31
0.0
  0
LINE
  5
206E
  8
0
 10
9.981926
 20
47.76776
 30
0.0
 11
10.168926
 21
47.76776
 31
0.0
  0
LINE
  5
206F
  8
0
 10
11.71228
 20
47.76776
 30
0.0
 11
11.89928
 21
47.76776
 31
0.0
  0
LINE
  5
2070
  8
0
 10
10.847103
 20
47.76776
 30
0.0
 11
11.034103
 21
47.76776
 31
0.0
  0
LINE
  5
2071
  8
0
 10
11.279691
 20
47.76776
 30
0.0
 11
11.466691
 21
47.76776
 31
0.0
  0
LINE
  5
2072
  8
0
 10
12.144868
 20
47.76776
 30
0.0
 11
12.331868
 21
47.76776
 31
0.0
  0
LINE
  5
2073
  8
0
 10
12.577456
 20
47.76776
 30
0.0
 11
12.764456
 21
47.76776
 31
0.0
  0
LINE
  5
2074
  8
0
 10
14.30781
 20
47.76776
 30
0.0
 11
14.49481
 21
47.76776
 31
0.0
  0
LINE
  5
2075
  8
0
 10
13.442633
 20
47.76776
 30
0.0
 11
13.629633
 21
47.76776
 31
0.0
  0
LINE
  5
2076
  8
0
 10
13.875221
 20
47.76776
 30
0.0
 11
14.062221
 21
47.76776
 31
0.0
  0
LINE
  5
2077
  8
0
 10
14.740398
 20
47.76776
 30
0.0
 11
14.927398
 21
47.76776
 31
0.0
  0
LINE
  5
2078
  8
0
 10
15.605575
 20
47.76776
 30
0.0
 11
15.792575
 21
47.76776
 31
0.0
  0
LINE
  5
2079
  8
0
 10
15.172986
 20
47.76776
 30
0.0
 11
15.359986
 21
47.76776
 31
0.0
  0
LINE
  5
207A
  8
0
 10
16.470751
 20
47.76776
 30
0.0
 11
16.657751
 21
47.76776
 31
0.0
  0
LINE
  5
207B
  8
0
 10
16.038163
 20
47.76776
 30
0.0
 11
16.225163
 21
47.76776
 31
0.0
  0
LINE
  5
207C
  8
0
 10
16.903339
 20
47.76776
 30
0.0
 11
17.090339
 21
47.76776
 31
0.0
  0
LINE
  5
207D
  8
0
 10
17.768516
 20
47.76776
 30
0.0
 11
17.955516
 21
47.76776
 31
0.0
  0
LINE
  5
207E
  8
0
 10
17.335928
 20
47.76776
 30
0.0
 11
17.522928
 21
47.76776
 31
0.0
  0
LINE
  5
207F
  8
0
 10
18.201104
 20
47.76776
 30
0.0
 11
18.388104
 21
47.76776
 31
0.0
  0
LINE
  5
2080
  8
0
 10
19.020231
 20
31.411892
 30
0.0
 11
19.020231
 21
33.161892
 31
0.0
  0
LINE
  5
2081
  8
0
 10
18.833231
 20
33.161892
 30
0.0
 11
18.833231
 21
31.411892
 31
0.0
  0
LINE
  5
2082
  8
0
 10
18.833231
 20
31.411892
 30
0.0
 11
19.020231
 21
31.411892
 31
0.0
  0
LINE
  5
2083
  8
0
 10
19.020231
 20
33.161892
 30
0.0
 11
18.833231
 21
33.161892
 31
0.0
  0
ARC
  5
2084
  8
0
 10
20.299598
 20
34.024633
 30
0.0
 40
0.14
 50
0.0
 51
90.0
  0
ARC
  5
2085
  8
DIMENSION
  6
HIDDEN
 10
20.299598
 20
34.024633
 30
0.0
 40
0.07
 50
0.0
 51
90.0
  0
LINE
  5
2086
  8
0
 10
20.17006
 20
39.76776
 30
0.0
 11
20.17006
 21
39.69776
 31
0.0
  0
LINE
  5
2087
  8
0
 10
20.17006
 20
39.76776
 30
0.0
 11
20.24006
 21
39.76776
 31
0.0
  0
LINE
  5
2088
  8
0
 10
18.633693
 20
47.76776
 30
0.0
 11
18.820693
 21
47.76776
 31
0.0
  0
LINE
  5
208A
  8
0
 10
13.197045
 20
49.51776
 30
0.0
 11
13.010045
 21
49.51776
 31
0.0
  0
LINE
  5
208B
  8
0
 10
13.197045
 20
51.76776
 30
0.0
 11
13.010045
 21
51.76776
 31
0.0
  0
LINE
  5
208C
  8
0
 10
13.010045
 20
50.01776
 30
0.0
 11
13.197045
 21
50.01776
 31
0.0
  0
LINE
  5
208D
  8
0
 10
10.601515
 20
49.51776
 30
0.0
 11
10.414515
 21
49.51776
 31
0.0
  0
LINE
  5
208E
  8
0
 10
10.601515
 20
51.76776
 30
0.0
 11
10.414515
 21
51.76776
 31
0.0
  0
LINE
  5
208F
  8
0
 10
10.414515
 20
50.01776
 30
0.0
 11
10.601515
 21
50.01776
 31
0.0
  0
LINE
  5
2090
  8
0
 10
8.871161
 20
50.01776
 30
0.0
 11
8.871161
 21
51.76776
 31
0.0
  0
LINE
  5
2091
  8
0
 10
8.684161
 20
51.76776
 30
0.0
 11
8.684161
 21
50.01776
 31
0.0
  0
LINE
  5
2092
  8
0
 10
8.005985
 20
51.76776
 30
0.0
 11
8.005985
 21
50.01776
 31
0.0
  0
LINE
  5
2093
  8
0
 10
8.438573
 20
51.76776
 30
0.0
 11
8.438573
 21
50.01776
 31
0.0
  0
LINE
  5
2094
  8
0
 10
8.251573
 20
50.01776
 30
0.0
 11
8.251573
 21
51.76776
 31
0.0
  0
LINE
  5
2095
  8
0
 10
9.549338
 20
50.01776
 30
0.0
 11
9.549338
 21
51.76776
 31
0.0
  0
LINE
  5
2096
  8
0
 10
9.736338
 20
51.76776
 30
0.0
 11
9.736338
 21
50.01776
 31
0.0
  0
LINE
  5
2097
  8
0
 10
9.11675
 20
50.01776
 30
0.0
 11
9.11675
 21
51.76776
 31
0.0
  0
LINE
  5
2098
  8
0
 10
9.30375
 20
51.76776
 30
0.0
 11
9.30375
 21
50.01776
 31
0.0
  0
LINE
  5
2099
  8
0
 10
9.981926
 20
51.76776
 30
0.0
 11
9.981926
 21
50.01776
 31
0.0
  0
LINE
  5
209A
  8
0
 10
10.168926
 20
50.01776
 30
0.0
 11
10.168926
 21
51.76776
 31
0.0
  0
LINE
  5
209B
  8
0
 10
10.414515
 20
51.76776
 30
0.0
 11
10.414515
 21
50.01776
 31
0.0
  0
LINE
  5
209C
  8
0
 10
9.11675
 20
49.51776
 30
0.0
 11
9.30375
 21
49.51776
 31
0.0
  0
LINE
  5
209D
  8
0
 10
9.30375
 20
50.01776
 30
0.0
 11
9.11675
 21
50.01776
 31
0.0
  0
LINE
  5
209E
  8
0
 10
8.251573
 20
49.51776
 30
0.0
 11
8.438573
 21
49.51776
 31
0.0
  0
LINE
  5
209F
  8
0
 10
8.438573
 20
50.01776
 30
0.0
 11
8.251573
 21
50.01776
 31
0.0
  0
LINE
  5
20A0
  8
0
 10
8.871161
 20
49.51776
 30
0.0
 11
8.684161
 21
49.51776
 31
0.0
  0
LINE
  5
20A1
  8
0
 10
8.684161
 20
50.01776
 30
0.0
 11
8.871161
 21
50.01776
 31
0.0
  0
LINE
  5
20A2
  8
0
 10
9.549338
 20
49.51776
 30
0.0
 11
9.736338
 21
49.51776
 31
0.0
  0
LINE
  5
20A3
  8
0
 10
9.736338
 20
50.01776
 30
0.0
 11
9.549338
 21
50.01776
 31
0.0
  0
LINE
  5
20A4
  8
0
 10
10.168926
 20
49.51776
 30
0.0
 11
9.981926
 21
49.51776
 31
0.0
  0
LINE
  5
20A5
  8
0
 10
9.981926
 20
50.01776
 30
0.0
 11
10.168926
 21
50.01776
 31
0.0
  0
LINE
  5
20A6
  8
0
 10
9.11675
 20
51.76776
 30
0.0
 11
9.30375
 21
51.76776
 31
0.0
  0
LINE
  5
20A7
  8
0
 10
8.251573
 20
51.76776
 30
0.0
 11
8.438573
 21
51.76776
 31
0.0
  0
LINE
  5
20A8
  8
0
 10
8.871161
 20
51.76776
 30
0.0
 11
8.684161
 21
51.76776
 31
0.0
  0
LINE
  5
20A9
  8
0
 10
9.549338
 20
51.76776
 30
0.0
 11
9.736338
 21
51.76776
 31
0.0
  0
LINE
  5
20AA
  8
0
 10
10.168926
 20
51.76776
 30
0.0
 11
9.981926
 21
51.76776
 31
0.0
  0
LINE
  5
20AB
  8
0
 10
10.601515
 20
50.01776
 30
0.0
 11
10.601515
 21
51.76776
 31
0.0
  0
LINE
  5
20AC
  8
0
 10
10.847103
 20
51.76776
 30
0.0
 11
10.847103
 21
50.01776
 31
0.0
  0
LINE
  5
20AD
  8
0
 10
11.034103
 20
50.01776
 30
0.0
 11
11.034103
 21
51.76776
 31
0.0
  0
LINE
  5
20AE
  8
0
 10
11.279691
 20
51.76776
 30
0.0
 11
11.279691
 21
50.01776
 31
0.0
  0
LINE
  5
20AF
  8
0
 10
13.010045
 20
51.76776
 30
0.0
 11
13.010045
 21
50.01776
 31
0.0
  0
LINE
  5
20B0
  8
0
 10
12.764456
 20
50.01776
 30
0.0
 11
12.764456
 21
51.76776
 31
0.0
  0
LINE
  5
20B1
  8
0
 10
12.577456
 20
51.76776
 30
0.0
 11
12.577456
 21
50.01776
 31
0.0
  0
LINE
  5
20B2
  8
0
 10
12.331868
 20
50.01776
 30
0.0
 11
12.331868
 21
51.76776
 31
0.0
  0
LINE
  5
20B3
  8
0
 10
12.144868
 20
51.76776
 30
0.0
 11
12.144868
 21
50.01776
 31
0.0
  0
LINE
  5
20B4
  8
0
 10
11.89928
 20
50.01776
 30
0.0
 11
11.89928
 21
51.76776
 31
0.0
  0
LINE
  5
20B5
  8
0
 10
11.71228
 20
51.76776
 30
0.0
 11
11.71228
 21
50.01776
 31
0.0
  0
LINE
  5
20B6
  8
0
 10
11.466691
 20
50.01776
 30
0.0
 11
11.466691
 21
51.76776
 31
0.0
  0
LINE
  5
20B7
  8
0
 10
11.89928
 20
49.51776
 30
0.0
 11
11.71228
 21
49.51776
 31
0.0
  0
LINE
  5
20B8
  8
0
 10
11.71228
 20
50.01776
 30
0.0
 11
11.89928
 21
50.01776
 31
0.0
  0
LINE
  5
20B9
  8
0
 10
11.034103
 20
49.51776
 30
0.0
 11
10.847103
 21
49.51776
 31
0.0
  0
LINE
  5
20BA
  8
0
 10
10.847103
 20
50.01776
 30
0.0
 11
11.034103
 21
50.01776
 31
0.0
  0
LINE
  5
20BB
  8
0
 10
11.466691
 20
49.51776
 30
0.0
 11
11.279691
 21
49.51776
 31
0.0
  0
LINE
  5
20BC
  8
0
 10
11.279691
 20
50.01776
 30
0.0
 11
11.466691
 21
50.01776
 31
0.0
  0
LINE
  5
20BD
  8
0
 10
12.331868
 20
49.51776
 30
0.0
 11
12.144868
 21
49.51776
 31
0.0
  0
LINE
  5
20BE
  8
0
 10
12.144868
 20
50.01776
 30
0.0
 11
12.331868
 21
50.01776
 31
0.0
  0
LINE
  5
20BF
  8
0
 10
12.764456
 20
49.51776
 30
0.0
 11
12.577456
 21
49.51776
 31
0.0
  0
LINE
  5
20C0
  8
0
 10
12.577456
 20
50.01776
 30
0.0
 11
12.764456
 21
50.01776
 31
0.0
  0
LINE
  5
20C1
  8
0
 10
11.89928
 20
51.76776
 30
0.0
 11
11.71228
 21
51.76776
 31
0.0
  0
LINE
  5
20C2
  8
0
 10
11.034103
 20
51.76776
 30
0.0
 11
10.847103
 21
51.76776
 31
0.0
  0
LINE
  5
20C3
  8
0
 10
11.466691
 20
51.76776
 30
0.0
 11
11.279691
 21
51.76776
 31
0.0
  0
LINE
  5
20C4
  8
0
 10
12.331868
 20
51.76776
 30
0.0
 11
12.144868
 21
51.76776
 31
0.0
  0
LINE
  5
20C5
  8
0
 10
12.764456
 20
51.76776
 30
0.0
 11
12.577456
 21
51.76776
 31
0.0
  0
LINE
  5
20C6
  8
0
 10
15.792575
 20
50.01776
 30
0.0
 11
15.792575
 21
51.76776
 31
0.0
  0
LINE
  5
20C7
  8
0
 10
15.605575
 20
51.76776
 30
0.0
 11
15.605575
 21
50.01776
 31
0.0
  0
LINE
  5
20C8
  8
0
 10
15.359986
 20
50.01776
 30
0.0
 11
15.359986
 21
51.76776
 31
0.0
  0
LINE
  5
20C9
  8
0
 10
15.172986
 20
51.76776
 30
0.0
 11
15.172986
 21
50.01776
 31
0.0
  0
LINE
  5
20CA
  8
0
 10
14.927398
 20
50.01776
 30
0.0
 11
14.927398
 21
51.76776
 31
0.0
  0
LINE
  5
20CB
  8
0
 10
14.740398
 20
51.76776
 30
0.0
 11
14.740398
 21
50.01776
 31
0.0
  0
LINE
  5
20CC
  8
0
 10
14.49481
 20
50.01776
 30
0.0
 11
14.49481
 21
51.76776
 31
0.0
  0
LINE
  5
20CD
  8
0
 10
14.30781
 20
51.76776
 30
0.0
 11
14.30781
 21
50.01776
 31
0.0
  0
LINE
  5
20CE
  8
0
 10
14.062221
 20
50.01776
 30
0.0
 11
14.062221
 21
51.76776
 31
0.0
  0
LINE
  5
20CF
  8
0
 10
13.875221
 20
51.76776
 30
0.0
 11
13.875221
 21
50.01776
 31
0.0
  0
LINE
  5
20D0
  8
0
 10
13.629633
 20
50.01776
 30
0.0
 11
13.629633
 21
51.76776
 31
0.0
  0
LINE
  5
20D1
  8
0
 10
13.442633
 20
51.76776
 30
0.0
 11
13.442633
 21
50.01776
 31
0.0
  0
LINE
  5
20D2
  8
0
 10
13.197045
 20
50.01776
 30
0.0
 11
13.197045
 21
51.76776
 31
0.0
  0
LINE
  5
20D3
  8
0
 10
14.49481
 20
49.51776
 30
0.0
 11
14.30781
 21
49.51776
 31
0.0
  0
LINE
  5
20D4
  8
0
 10
14.30781
 20
50.01776
 30
0.0
 11
14.49481
 21
50.01776
 31
0.0
  0
LINE
  5
20D5
  8
0
 10
13.629633
 20
49.51776
 30
0.0
 11
13.442633
 21
49.51776
 31
0.0
  0
LINE
  5
20D6
  8
0
 10
13.442633
 20
50.01776
 30
0.0
 11
13.629633
 21
50.01776
 31
0.0
  0
LINE
  5
20D7
  8
0
 10
14.062221
 20
49.51776
 30
0.0
 11
13.875221
 21
49.51776
 31
0.0
  0
LINE
  5
20D8
  8
0
 10
13.875221
 20
50.01776
 30
0.0
 11
14.062221
 21
50.01776
 31
0.0
  0
LINE
  5
20D9
  8
0
 10
14.927398
 20
49.51776
 30
0.0
 11
14.740398
 21
49.51776
 31
0.0
  0
LINE
  5
20DA
  8
0
 10
14.740398
 20
50.01776
 30
0.0
 11
14.927398
 21
50.01776
 31
0.0
  0
LINE
  5
20DB
  8
0
 10
15.792575
 20
49.51776
 30
0.0
 11
15.605575
 21
49.51776
 31
0.0
  0
LINE
  5
20DC
  8
0
 10
15.359986
 20
49.51776
 30
0.0
 11
15.172986
 21
49.51776
 31
0.0
  0
LINE
  5
20DD
  8
0
 10
15.605575
 20
50.01776
 30
0.0
 11
15.792575
 21
50.01776
 31
0.0
  0
LINE
  5
20DE
  8
0
 10
15.172986
 20
50.01776
 30
0.0
 11
15.359986
 21
50.01776
 31
0.0
  0
LINE
  5
20DF
  8
0
 10
14.49481
 20
51.76776
 30
0.0
 11
14.30781
 21
51.76776
 31
0.0
  0
LINE
  5
20E0
  8
0
 10
13.629633
 20
51.76776
 30
0.0
 11
13.442633
 21
51.76776
 31
0.0
  0
LINE
  5
20E1
  8
0
 10
14.062221
 20
51.76776
 30
0.0
 11
13.875221
 21
51.76776
 31
0.0
  0
LINE
  5
20E2
  8
0
 10
14.927398
 20
51.76776
 30
0.0
 11
14.740398
 21
51.76776
 31
0.0
  0
LINE
  5
20E3
  8
0
 10
15.792575
 20
51.76776
 30
0.0
 11
15.605575
 21
51.76776
 31
0.0
  0
LINE
  5
20E4
  8
0
 10
15.359986
 20
51.76776
 30
0.0
 11
15.172986
 21
51.76776
 31
0.0
  0
LINE
  5
20E5
  8
0
 10
18.388104
 20
50.01776
 30
0.0
 11
18.388104
 21
51.76776
 31
0.0
  0
LINE
  5
20E6
  8
0
 10
18.201104
 20
51.76776
 30
0.0
 11
18.201104
 21
50.01776
 31
0.0
  0
LINE
  5
20E7
  8
0
 10
17.955516
 20
50.01776
 30
0.0
 11
17.955516
 21
51.76776
 31
0.0
  0
LINE
  5
20E8
  8
0
 10
17.768516
 20
51.76776
 30
0.0
 11
17.768516
 21
50.01776
 31
0.0
  0
LINE
  5
20E9
  8
0
 10
17.522928
 20
50.01776
 30
0.0
 11
17.522928
 21
51.76776
 31
0.0
  0
LINE
  5
20EA
  8
0
 10
17.335928
 20
51.76776
 30
0.0
 11
17.335928
 21
50.01776
 31
0.0
  0
LINE
  5
20EB
  8
0
 10
16.038163
 20
51.76776
 30
0.0
 11
16.038163
 21
50.01776
 31
0.0
  0
LINE
  5
20EC
  8
0
 10
16.225163
 20
50.01776
 30
0.0
 11
16.225163
 21
51.76776
 31
0.0
  0
LINE
  5
20ED
  8
0
 10
16.470751
 20
51.76776
 30
0.0
 11
16.470751
 21
50.01776
 31
0.0
  0
LINE
  5
20EE
  8
0
 10
16.657751
 20
50.01776
 30
0.0
 11
16.657751
 21
51.76776
 31
0.0
  0
LINE
  5
20EF
  8
0
 10
16.903339
 20
51.76776
 30
0.0
 11
16.903339
 21
50.01776
 31
0.0
  0
LINE
  5
20F0
  8
0
 10
17.090339
 20
50.01776
 30
0.0
 11
17.090339
 21
51.76776
 31
0.0
  0
LINE
  5
20F1
  8
0
 10
16.657751
 20
49.51776
 30
0.0
 11
16.470751
 21
49.51776
 31
0.0
  0
LINE
  5
20F2
  8
0
 10
16.470751
 20
50.01776
 30
0.0
 11
16.657751
 21
50.01776
 31
0.0
  0
LINE
  5
20F3
  8
0
 10
16.225163
 20
49.51776
 30
0.0
 11
16.038163
 21
49.51776
 31
0.0
  0
LINE
  5
20F4
  8
0
 10
16.038163
 20
50.01776
 30
0.0
 11
16.225163
 21
50.01776
 31
0.0
  0
LINE
  5
20F5
  8
0
 10
17.090339
 20
49.51776
 30
0.0
 11
16.903339
 21
49.51776
 31
0.0
  0
LINE
  5
20F6
  8
0
 10
16.903339
 20
50.01776
 30
0.0
 11
17.090339
 21
50.01776
 31
0.0
  0
LINE
  5
20F7
  8
0
 10
17.955516
 20
49.51776
 30
0.0
 11
17.768516
 21
49.51776
 31
0.0
  0
LINE
  5
20F8
  8
0
 10
17.768516
 20
50.01776
 30
0.0
 11
17.955516
 21
50.01776
 31
0.0
  0
LINE
  5
20F9
  8
0
 10
17.522928
 20
49.51776
 30
0.0
 11
17.335928
 21
49.51776
 31
0.0
  0
LINE
  5
20FA
  8
0
 10
17.335928
 20
50.01776
 30
0.0
 11
17.522928
 21
50.01776
 31
0.0
  0
LINE
  5
20FB
  8
0
 10
18.388104
 20
49.51776
 30
0.0
 11
18.201104
 21
49.51776
 31
0.0
  0
LINE
  5
20FC
  8
0
 10
18.201104
 20
50.01776
 30
0.0
 11
18.388104
 21
50.01776
 31
0.0
  0
LINE
  5
20FD
  8
0
 10
16.657751
 20
51.76776
 30
0.0
 11
16.470751
 21
51.76776
 31
0.0
  0
LINE
  5
20FE
  8
0
 10
16.225163
 20
51.76776
 30
0.0
 11
16.038163
 21
51.76776
 31
0.0
  0
LINE
  5
20FF
  8
0
 10
17.090339
 20
51.76776
 30
0.0
 11
16.903339
 21
51.76776
 31
0.0
  0
LINE
  5
2100
  8
0
 10
17.955516
 20
51.76776
 30
0.0
 11
17.768516
 21
51.76776
 31
0.0
  0
LINE
  5
2101
  8
0
 10
17.522928
 20
51.76776
 30
0.0
 11
17.335928
 21
51.76776
 31
0.0
  0
LINE
  5
2102
  8
0
 10
18.388104
 20
51.76776
 30
0.0
 11
18.201104
 21
51.76776
 31
0.0
  0
LINE
  5
2103
  8
0
 10
18.633693
 20
51.76776
 30
0.0
 11
18.633693
 21
50.01776
 31
0.0
  0
LINE
  5
2104
  8
0
 10
18.820693
 20
50.01776
 30
0.0
 11
18.820693
 21
51.76776
 31
0.0
  0
LINE
  5
2105
  8
0
 10
18.633693
 20
50.01776
 30
0.0
 11
18.820693
 21
50.01776
 31
0.0
  0
LINE
  5
2106
  8
0
 10
18.820693
 20
49.51776
 30
0.0
 11
18.633693
 21
49.51776
 31
0.0
  0
LINE
  5
2107
  8
0
 10
18.820693
 20
51.76776
 30
0.0
 11
18.633693
 21
51.76776
 31
0.0
  0
LINE
  5
210F
  8
0
 10
39.416048
 20
22.098852
 30
0.0
 11
39.416048
 21
34.164633
 31
0.0
  0
LINE
  5
2110
  8
0
 10
26.486048
 20
34.164633
 30
0.0
 11
26.486048
 21
22.098852
 31
0.0
  0
LINE
  5
2113
  8
0
 10
30.010198
 20
30.661892
 30
0.0
 11
30.010198
 21
28.911892
 31
0.0
  0
LINE
  5
2114
  8
0
 10
30.197198
 20
28.911892
 30
0.0
 11
30.197198
 21
30.661892
 31
0.0
  0
LINE
  5
2115
  8
0
 10
30.442786
 20
30.661892
 30
0.0
 11
30.442786
 21
28.911892
 31
0.0
  0
LINE
  5
2116
  8
0
 10
30.629786
 20
28.911892
 30
0.0
 11
30.629786
 21
30.661892
 31
0.0
  0
LINE
  5
2117
  8
0
 10
30.875375
 20
30.661892
 30
0.0
 11
30.875375
 21
28.911892
 31
0.0
  0
LINE
  5
2118
  8
0
 10
31.062375
 20
28.911892
 30
0.0
 11
31.062375
 21
30.661892
 31
0.0
  0
LINE
  5
2119
  8
0
 10
31.307963
 20
30.661892
 30
0.0
 11
31.307963
 21
28.911892
 31
0.0
  0
LINE
  5
211A
  8
0
 10
31.494963
 20
28.911892
 30
0.0
 11
31.494963
 21
30.661892
 31
0.0
  0
LINE
  5
211B
  8
0
 10
31.740551
 20
30.661892
 30
0.0
 11
31.740551
 21
28.911892
 31
0.0
  0
LINE
  5
211C
  8
0
 10
31.927551
 20
28.911892
 30
0.0
 11
31.927551
 21
30.661892
 31
0.0
  0
LINE
  5
211D
  8
0
 10
32.17314
 20
30.661892
 30
0.0
 11
32.17314
 21
28.911892
 31
0.0
  0
LINE
  5
211E
  8
0
 10
32.36014
 20
28.911892
 30
0.0
 11
32.36014
 21
30.661892
 31
0.0
  0
LINE
  5
211F
  8
0
 10
32.605728
 20
30.661892
 30
0.0
 11
32.605728
 21
28.911892
 31
0.0
  0
LINE
  5
2120
  8
0
 10
32.792728
 20
28.911892
 30
0.0
 11
32.792728
 21
30.661892
 31
0.0
  0
LINE
  5
2121
  8
0
 10
33.038316
 20
30.661892
 30
0.0
 11
33.038316
 21
28.911892
 31
0.0
  0
LINE
  5
2122
  8
0
 10
33.225316
 20
28.911892
 30
0.0
 11
33.225316
 21
30.661892
 31
0.0
  0
LINE
  5
2123
  8
0
 10
33.470905
 20
30.661892
 30
0.0
 11
33.470905
 21
28.911892
 31
0.0
  0
LINE
  5
2124
  8
0
 10
33.657905
 20
28.911892
 30
0.0
 11
33.657905
 21
30.661892
 31
0.0
  0
LINE
  5
2125
  8
0
 10
33.903493
 20
30.661892
 30
0.0
 11
33.903493
 21
28.911892
 31
0.0
  0
LINE
  5
2126
  8
0
 10
34.090493
 20
28.911892
 30
0.0
 11
34.090493
 21
30.661892
 31
0.0
  0
LINE
  5
2127
  8
0
 10
34.336081
 20
30.661892
 30
0.0
 11
34.336081
 21
28.911892
 31
0.0
  0
LINE
  5
2128
  8
0
 10
34.523081
 20
28.911892
 30
0.0
 11
34.523081
 21
30.661892
 31
0.0
  0
LINE
  5
2129
  8
0
 10
35.820846
 20
28.911892
 30
0.0
 11
35.820846
 21
30.661892
 31
0.0
  0
LINE
  5
212A
  8
0
 10
35.633846
 20
30.661892
 30
0.0
 11
35.633846
 21
28.911892
 31
0.0
  0
LINE
  5
212B
  8
0
 10
35.388258
 20
28.911892
 30
0.0
 11
35.388258
 21
30.661892
 31
0.0
  0
LINE
  5
212C
  8
0
 10
35.201258
 20
30.661892
 30
0.0
 11
35.201258
 21
28.911892
 31
0.0
  0
LINE
  5
212D
  8
0
 10
34.95567
 20
28.911892
 30
0.0
 11
34.95567
 21
30.661892
 31
0.0
  0
LINE
  5
212E
  8
0
 10
34.76867
 20
30.661892
 30
0.0
 11
34.76867
 21
28.911892
 31
0.0
  0
LINE
  5
212F
  8
0
 10
29.76461
 20
28.911892
 30
0.0
 11
29.76461
 21
30.661892
 31
0.0
  0
LINE
  5
2130
  8
0
 10
29.57761
 20
30.661892
 30
0.0
 11
29.57761
 21
28.911892
 31
0.0
  0
LINE
  5
2131
  8
0
 10
29.332021
 20
28.911892
 30
0.0
 11
29.332021
 21
30.661892
 31
0.0
  0
LINE
  5
2132
  8
0
 10
29.145021
 20
30.661892
 30
0.0
 11
29.145021
 21
28.911892
 31
0.0
  0
LINE
  5
2133
  8
0
 10
28.899433
 20
28.911892
 30
0.0
 11
28.899433
 21
30.661892
 31
0.0
  0
LINE
  5
2134
  8
0
 10
28.712433
 20
30.661892
 30
0.0
 11
28.712433
 21
28.911892
 31
0.0
  0
LINE
  5
2135
  8
0
 10
28.034256
 20
30.661892
 30
0.0
 11
28.034256
 21
28.911892
 31
0.0
  0
LINE
  5
2136
  8
0
 10
27.847256
 20
28.911892
 30
0.0
 11
27.847256
 21
30.661892
 31
0.0
  0
LINE
  5
2137
  8
0
 10
28.466845
 20
30.661892
 30
0.0
 11
28.466845
 21
28.911892
 31
0.0
  0
LINE
  5
2138
  8
0
 10
28.279845
 20
28.911892
 30
0.0
 11
28.279845
 21
30.661892
 31
0.0
  0
LINE
  5
2139
  8
0
 10
26.346048
 20
22.098852
 30
0.0
 11
26.346048
 21
34.024633
 31
0.0
  0
LINE
  5
213A
  8
0
  6
CONTINUOUS
 10
26.416048
 20
22.098852
 30
0.0
 11
26.416048
 21
34.024633
 31
0.0
  0
ARC
  5
2143
  8
0
 10
29.54283
 20
23.598852
 30
0.0
 40
1.5
 50
0.0
 51
180.0
  0
LINE
  5
2147
  8
CENTERLINE
 10
29.54283
 20
23.238852
 30
0.0
 11
29.54283
 21
23.958852
 31
0.0
  0
LINE
  5
2148
  8
0
 10
28.04283
 20
23.598852
 30
0.0
 11
28.04283
 21
22.098852
 31
0.0
  0
LINE
  5
2149
  8
CENTERLINE
 10
27.41283
 20
22.738852
 30
0.0
 11
27.41283
 21
23.458852
 31
0.0
  0
LINE
  5
214B
  8
0
 10
26.486048
 20
22.098852
 30
0.0
 11
28.04283
 21
22.098852
 31
0.0
  0
LINE
  5
214C
  8
0
  6
CONTINUOUS
 10
26.416048
 20
22.098852
 30
0.0
 11
26.346048
 21
22.098852
 31
0.0
  0
CIRCLE
  5
214D
  8
0
 10
27.41283
 20
23.098852
 30
0.0
 40
0.0805
  0
LINE
  5
214E
  8
CENTERLINE
 10
29.18283
 20
23.598852
 30
0.0
 11
29.90283
 21
23.598852
 31
0.0
  0
LINE
  5
214F
  8
0
 10
28.034256
 20
28.911892
 30
0.0
 11
27.847256
 21
28.911892
 31
0.0
  0
LINE
  5
2150
  8
0
 10
29.145021
 20
28.911892
 30
0.0
 11
29.332021
 21
28.911892
 31
0.0
  0
LINE
  5
2151
  8
0
 10
28.466845
 20
28.911892
 30
0.0
 11
28.279845
 21
28.911892
 31
0.0
  0
LINE
  5
2152
  8
0
 10
28.712433
 20
28.911892
 30
0.0
 11
28.899433
 21
28.911892
 31
0.0
  0
LINE
  5
2153
  8
0
 10
29.57761
 20
28.911892
 30
0.0
 11
29.76461
 21
28.911892
 31
0.0
  0
LINE
  5
2154
  8
0
 10
30.010198
 20
28.911892
 30
0.0
 11
30.197198
 21
28.911892
 31
0.0
  0
LINE
  5
2155
  8
0
 10
30.442786
 20
28.911892
 30
0.0
 11
30.629786
 21
28.911892
 31
0.0
  0
LINE
  5
2156
  8
0
 10
31.04283
 20
23.598852
 30
0.0
 11
31.04283
 21
22.098852
 31
0.0
  0
LINE
  5
2158
  8
CENTERLINE
 10
35.91283
 20
22.738852
 30
0.0
 11
35.91283
 21
23.458852
 31
0.0
  0
LINE
  5
2159
  8
0
 10
31.04283
 20
22.098852
 30
0.0
 11
39.416048
 21
22.098852
 31
0.0
  0
CIRCLE
  5
215A
  8
0
 10
35.91283
 20
23.098852
 30
0.0
 40
0.0805
  0
LINE
  5
215F
  8
0
 10
30.875375
 20
28.911892
 30
0.0
 11
31.062375
 21
28.911892
 31
0.0
  0
LINE
  5
2160
  8
0
 10
31.307963
 20
28.911892
 30
0.0
 11
31.494963
 21
28.911892
 31
0.0
  0
LINE
  5
2161
  8
0
 10
31.740551
 20
28.911892
 30
0.0
 11
31.927551
 21
28.911892
 31
0.0
  0
LINE
  5
2162
  8
0
 10
32.605728
 20
28.911892
 30
0.0
 11
32.792728
 21
28.911892
 31
0.0
  0
LINE
  5
2163
  8
0
 10
32.17314
 20
28.911892
 30
0.0
 11
32.36014
 21
28.911892
 31
0.0
  0
LINE
  5
2164
  8
0
 10
33.038316
 20
28.911892
 30
0.0
 11
33.225316
 21
28.911892
 31
0.0
  0
LINE
  5
2165
  8
0
 10
33.903493
 20
28.911892
 30
0.0
 11
34.090493
 21
28.911892
 31
0.0
  0
LINE
  5
2166
  8
0
 10
33.470905
 20
28.911892
 30
0.0
 11
33.657905
 21
28.911892
 31
0.0
  0
LINE
  5
2167
  8
0
 10
34.336081
 20
28.911892
 30
0.0
 11
34.523081
 21
28.911892
 31
0.0
  0
LINE
  5
2168
  8
0
 10
35.201258
 20
28.911892
 30
0.0
 11
35.388258
 21
28.911892
 31
0.0
  0
LINE
  5
2169
  8
0
 10
34.76867
 20
28.911892
 30
0.0
 11
34.95567
 21
28.911892
 31
0.0
  0
LINE
  5
216A
  8
0
 10
35.633846
 20
28.911892
 30
0.0
 11
35.820846
 21
28.911892
 31
0.0
  0
LINE
  5
2170
  8
HIDDEN
 10
39.416048
 20
34.094633
 30
0.0
 11
26.486048
 21
34.094633
 31
0.0
  0
LINE
  5
2173
  8
0
 10
39.416048
 20
34.164633
 30
0.0
 11
26.486048
 21
34.164633
 31
0.0
  0
LINE
  5
2175
  8
0
 10
27.847256
 20
30.661892
 30
0.0
 11
28.034256
 21
30.661892
 31
0.0
  0
LINE
  5
2176
  8
0
 10
28.034256
 20
31.411892
 30
0.0
 11
27.847256
 21
31.411892
 31
0.0
  0
LINE
  5
2177
  8
0
 10
27.847256
 20
33.161892
 30
0.0
 11
28.034256
 21
33.161892
 31
0.0
  0
LINE
  5
2178
  8
0
 10
27.847256
 20
31.411892
 30
0.0
 11
27.847256
 21
33.161892
 31
0.0
  0
LINE
  5
2179
  8
0
 10
28.279845
 20
31.411892
 30
0.0
 11
28.279845
 21
33.161892
 31
0.0
  0
LINE
  5
217A
  8
0
 10
28.466845
 20
33.161892
 30
0.0
 11
28.466845
 21
31.411892
 31
0.0
  0
LINE
  5
217B
  8
0
 10
28.034256
 20
33.161892
 30
0.0
 11
28.034256
 21
31.411892
 31
0.0
  0
LINE
  5
217C
  8
0
 10
28.712433
 20
33.161892
 30
0.0
 11
28.712433
 21
31.411892
 31
0.0
  0
LINE
  5
217D
  8
0
 10
28.899433
 20
31.411892
 30
0.0
 11
28.899433
 21
33.161892
 31
0.0
  0
LINE
  5
217E
  8
0
 10
29.145021
 20
33.161892
 30
0.0
 11
29.145021
 21
31.411892
 31
0.0
  0
LINE
  5
217F
  8
0
 10
29.332021
 20
31.411892
 30
0.0
 11
29.332021
 21
33.161892
 31
0.0
  0
LINE
  5
2180
  8
0
 10
29.57761
 20
33.161892
 30
0.0
 11
29.57761
 21
31.411892
 31
0.0
  0
LINE
  5
2181
  8
0
 10
29.76461
 20
31.411892
 30
0.0
 11
29.76461
 21
33.161892
 31
0.0
  0
LINE
  5
2182
  8
0
 10
30.629786
 20
31.411892
 30
0.0
 11
30.629786
 21
33.161892
 31
0.0
  0
LINE
  5
2183
  8
0
 10
30.442786
 20
33.161892
 30
0.0
 11
30.442786
 21
31.411892
 31
0.0
  0
LINE
  5
2184
  8
0
 10
30.197198
 20
31.411892
 30
0.0
 11
30.197198
 21
33.161892
 31
0.0
  0
LINE
  5
2185
  8
0
 10
30.010198
 20
33.161892
 30
0.0
 11
30.010198
 21
31.411892
 31
0.0
  0
LINE
  5
2186
  8
0
 10
29.332021
 20
30.661892
 30
0.0
 11
29.145021
 21
30.661892
 31
0.0
  0
LINE
  5
2187
  8
0
 10
29.145021
 20
31.411892
 30
0.0
 11
29.332021
 21
31.411892
 31
0.0
  0
LINE
  5
2188
  8
0
 10
28.279845
 20
30.661892
 30
0.0
 11
28.466845
 21
30.661892
 31
0.0
  0
LINE
  5
2189
  8
0
 10
28.899433
 20
30.661892
 30
0.0
 11
28.712433
 21
30.661892
 31
0.0
  0
LINE
  5
218A
  8
0
 10
28.466845
 20
31.411892
 30
0.0
 11
28.279845
 21
31.411892
 31
0.0
  0
LINE
  5
218B
  8
0
 10
28.712433
 20
31.411892
 30
0.0
 11
28.899433
 21
31.411892
 31
0.0
  0
LINE
  5
218C
  8
0
 10
29.76461
 20
30.661892
 30
0.0
 11
29.57761
 21
30.661892
 31
0.0
  0
LINE
  5
218D
  8
0
 10
30.197198
 20
30.661892
 30
0.0
 11
30.010198
 21
30.661892
 31
0.0
  0
LINE
  5
218E
  8
0
 10
30.629786
 20
30.661892
 30
0.0
 11
30.442786
 21
30.661892
 31
0.0
  0
LINE
  5
218F
  8
0
 10
29.57761
 20
31.411892
 30
0.0
 11
29.76461
 21
31.411892
 31
0.0
  0
LINE
  5
2190
  8
0
 10
30.442786
 20
31.411892
 30
0.0
 11
30.629786
 21
31.411892
 31
0.0
  0
LINE
  5
2191
  8
0
 10
30.010198
 20
31.411892
 30
0.0
 11
30.197198
 21
31.411892
 31
0.0
  0
LINE
  5
2192
  8
0
 10
29.332021
 20
33.161892
 30
0.0
 11
29.145021
 21
33.161892
 31
0.0
  0
LINE
  5
2193
  8
0
 10
28.279845
 20
33.161892
 30
0.0
 11
28.466845
 21
33.161892
 31
0.0
  0
LINE
  5
2194
  8
0
 10
28.899433
 20
33.161892
 30
0.0
 11
28.712433
 21
33.161892
 31
0.0
  0
LINE
  5
2195
  8
0
 10
29.76461
 20
33.161892
 30
0.0
 11
29.57761
 21
33.161892
 31
0.0
  0
LINE
  5
2196
  8
0
 10
30.629786
 20
33.161892
 30
0.0
 11
30.442786
 21
33.161892
 31
0.0
  0
LINE
  5
2197
  8
0
 10
30.197198
 20
33.161892
 30
0.0
 11
30.010198
 21
33.161892
 31
0.0
  0
ARC
  5
2198
  8
0
 10
26.486048
 20
34.024633
 30
0.0
 40
0.14
 50
90.0
 51
180.0
  0
ARC
  5
2199
  8
0
  6
HIDDEN
 10
26.486048
 20
34.024633
 30
0.0
 40
0.07
 50
90.0
 51
180.0
  0
LINE
  5
219F
  8
0
 10
33.225316
 20
31.411892
 30
0.0
 11
33.225316
 21
33.161892
 31
0.0
  0
LINE
  5
21A0
  8
0
 10
33.038316
 20
33.161892
 30
0.0
 11
33.038316
 21
31.411892
 31
0.0
  0
LINE
  5
21A1
  8
0
 10
32.792728
 20
31.411892
 30
0.0
 11
32.792728
 21
33.161892
 31
0.0
  0
LINE
  5
21A2
  8
0
 10
32.605728
 20
33.161892
 30
0.0
 11
32.605728
 21
31.411892
 31
0.0
  0
LINE
  5
21A3
  8
0
 10
32.36014
 20
31.411892
 30
0.0
 11
32.36014
 21
33.161892
 31
0.0
  0
LINE
  5
21A4
  8
0
 10
32.17314
 20
33.161892
 30
0.0
 11
32.17314
 21
31.411892
 31
0.0
  0
LINE
  5
21A5
  8
0
 10
31.927551
 20
31.411892
 30
0.0
 11
31.927551
 21
33.161892
 31
0.0
  0
LINE
  5
21A6
  8
0
 10
31.740551
 20
33.161892
 30
0.0
 11
31.740551
 21
31.411892
 31
0.0
  0
LINE
  5
21A7
  8
0
 10
31.494963
 20
31.411892
 30
0.0
 11
31.494963
 21
33.161892
 31
0.0
  0
LINE
  5
21A8
  8
0
 10
31.307963
 20
33.161892
 30
0.0
 11
31.307963
 21
31.411892
 31
0.0
  0
LINE
  5
21A9
  8
0
 10
31.062375
 20
31.411892
 30
0.0
 11
31.062375
 21
33.161892
 31
0.0
  0
LINE
  5
21AA
  8
0
 10
30.875375
 20
33.161892
 30
0.0
 11
30.875375
 21
31.411892
 31
0.0
  0
LINE
  5
21AB
  8
0
 10
31.062375
 20
30.661892
 30
0.0
 11
30.875375
 21
30.661892
 31
0.0
  0
LINE
  5
21AC
  8
0
 10
31.494963
 20
30.661892
 30
0.0
 11
31.307963
 21
30.661892
 31
0.0
  0
LINE
  5
21AD
  8
0
 10
31.927551
 20
30.661892
 30
0.0
 11
31.740551
 21
30.661892
 31
0.0
  0
LINE
  5
21AE
  8
0
 10
30.875375
 20
31.411892
 30
0.0
 11
31.062375
 21
31.411892
 31
0.0
  0
LINE
  5
21AF
  8
0
 10
31.740551
 20
31.411892
 30
0.0
 11
31.927551
 21
31.411892
 31
0.0
  0
LINE
  5
21B0
  8
0
 10
31.307963
 20
31.411892
 30
0.0
 11
31.494963
 21
31.411892
 31
0.0
  0
LINE
  5
21B1
  8
0
 10
32.792728
 20
30.661892
 30
0.0
 11
32.605728
 21
30.661892
 31
0.0
  0
LINE
  5
21B2
  8
0
 10
32.36014
 20
30.661892
 30
0.0
 11
32.17314
 21
30.661892
 31
0.0
  0
LINE
  5
21B3
  8
0
 10
33.225316
 20
30.661892
 30
0.0
 11
33.038316
 21
30.661892
 31
0.0
  0
LINE
  5
21B4
  8
0
 10
32.605728
 20
31.411892
 30
0.0
 11
32.792728
 21
31.411892
 31
0.0
  0
LINE
  5
21B5
  8
0
 10
32.17314
 20
31.411892
 30
0.0
 11
32.36014
 21
31.411892
 31
0.0
  0
LINE
  5
21B6
  8
0
 10
33.038316
 20
31.411892
 30
0.0
 11
33.225316
 21
31.411892
 31
0.0
  0
LINE
  5
21B7
  8
0
 10
31.062375
 20
33.161892
 30
0.0
 11
30.875375
 21
33.161892
 31
0.0
  0
LINE
  5
21B8
  8
0
 10
31.927551
 20
33.161892
 30
0.0
 11
31.740551
 21
33.161892
 31
0.0
  0
LINE
  5
21B9
  8
0
 10
31.494963
 20
33.161892
 30
0.0
 11
31.307963
 21
33.161892
 31
0.0
  0
LINE
  5
21BA
  8
0
 10
32.792728
 20
33.161892
 30
0.0
 11
32.605728
 21
33.161892
 31
0.0
  0
LINE
  5
21BB
  8
0
 10
32.36014
 20
33.161892
 30
0.0
 11
32.17314
 21
33.161892
 31
0.0
  0
LINE
  5
21BC
  8
0
 10
33.225316
 20
33.161892
 30
0.0
 11
33.038316
 21
33.161892
 31
0.0
  0
LINE
  5
21BD
  8
0
 10
34.76867
 20
33.161892
 30
0.0
 11
34.76867
 21
31.411892
 31
0.0
  0
LINE
  5
21BE
  8
0
 10
34.95567
 20
31.411892
 30
0.0
 11
34.95567
 21
33.161892
 31
0.0
  0
LINE
  5
21BF
  8
0
 10
35.201258
 20
33.161892
 30
0.0
 11
35.201258
 21
31.411892
 31
0.0
  0
LINE
  5
21C0
  8
0
 10
35.388258
 20
31.411892
 30
0.0
 11
35.388258
 21
33.161892
 31
0.0
  0
LINE
  5
21C1
  8
0
 10
35.633846
 20
33.161892
 30
0.0
 11
35.633846
 21
31.411892
 31
0.0
  0
LINE
  5
21C2
  8
0
 10
35.820846
 20
31.411892
 30
0.0
 11
35.820846
 21
33.161892
 31
0.0
  0
LINE
  5
21C3
  8
0
 10
34.523081
 20
31.411892
 30
0.0
 11
34.523081
 21
33.161892
 31
0.0
  0
LINE
  5
21C4
  8
0
 10
34.336081
 20
33.161892
 30
0.0
 11
34.336081
 21
31.411892
 31
0.0
  0
LINE
  5
21C5
  8
0
 10
34.090493
 20
31.411892
 30
0.0
 11
34.090493
 21
33.161892
 31
0.0
  0
LINE
  5
21C6
  8
0
 10
33.903493
 20
33.161892
 30
0.0
 11
33.903493
 21
31.411892
 31
0.0
  0
LINE
  5
21C7
  8
0
 10
33.657905
 20
31.411892
 30
0.0
 11
33.657905
 21
33.161892
 31
0.0
  0
LINE
  5
21C8
  8
0
 10
33.470905
 20
33.161892
 30
0.0
 11
33.470905
 21
31.411892
 31
0.0
  0
LINE
  5
21C9
  8
0
 10
34.090493
 20
30.661892
 30
0.0
 11
33.903493
 21
30.661892
 31
0.0
  0
LINE
  5
21CA
  8
0
 10
33.657905
 20
30.661892
 30
0.0
 11
33.470905
 21
30.661892
 31
0.0
  0
LINE
  5
21CB
  8
0
 10
34.523081
 20
30.661892
 30
0.0
 11
34.336081
 21
30.661892
 31
0.0
  0
LINE
  5
21CC
  8
0
 10
33.903493
 20
31.411892
 30
0.0
 11
34.090493
 21
31.411892
 31
0.0
  0
LINE
  5
21CD
  8
0
 10
33.470905
 20
31.411892
 30
0.0
 11
33.657905
 21
31.411892
 31
0.0
  0
LINE
  5
21CE
  8
0
 10
34.336081
 20
31.411892
 30
0.0
 11
34.523081
 21
31.411892
 31
0.0
  0
LINE
  5
21CF
  8
0
 10
35.388258
 20
30.661892
 30
0.0
 11
35.201258
 21
30.661892
 31
0.0
  0
LINE
  5
21D0
  8
0
 10
34.95567
 20
30.661892
 30
0.0
 11
34.76867
 21
30.661892
 31
0.0
  0
LINE
  5
21D1
  8
0
 10
35.820846
 20
30.661892
 30
0.0
 11
35.633846
 21
30.661892
 31
0.0
  0
LINE
  5
21D2
  8
0
 10
35.201258
 20
31.411892
 30
0.0
 11
35.388258
 21
31.411892
 31
0.0
  0
LINE
  5
21D3
  8
0
 10
34.76867
 20
31.411892
 30
0.0
 11
34.95567
 21
31.411892
 31
0.0
  0
LINE
  5
21D4
  8
0
 10
35.633846
 20
31.411892
 30
0.0
 11
35.820846
 21
31.411892
 31
0.0
  0
LINE
  5
21D5
  8
0
 10
34.090493
 20
33.161892
 30
0.0
 11
33.903493
 21
33.161892
 31
0.0
  0
LINE
  5
21D6
  8
0
 10
33.657905
 20
33.161892
 30
0.0
 11
33.470905
 21
33.161892
 31
0.0
  0
LINE
  5
21D7
  8
0
 10
34.523081
 20
33.161892
 30
0.0
 11
34.336081
 21
33.161892
 31
0.0
  0
LINE
  5
21D8
  8
0
 10
35.388258
 20
33.161892
 30
0.0
 11
35.201258
 21
33.161892
 31
0.0
  0
LINE
  5
21D9
  8
0
 10
34.95567
 20
33.161892
 30
0.0
 11
34.76867
 21
33.161892
 31
0.0
  0
LINE
  5
21DA
  8
0
 10
35.820846
 20
33.161892
 30
0.0
 11
35.633846
 21
33.161892
 31
0.0
  0
LINE
  5
21DB
  8
CENTERLINE
 10
38.056048
 20
31.598852
 30
0.0
 11
38.776048
 21
31.598852
 31
0.0
  0
LINE
  5
21DC
  8
CENTERLINE
 10
38.416048
 20
31.238852
 30
0.0
 11
38.416048
 21
31.958852
 31
0.0
  0
CIRCLE
  5
21DD
  8
0
 10
38.416048
 20
31.598852
 30
0.0
 40
0.0805
  0
LINE
  5
252B
  8
NOTES
 10
22.455672
 20
54.068452
 30
0.0
 11
25.060572
 21
54.068452
 31
0.0
  0
TEXT
  5
252C
  8
NOTES
 10
22.455672
 20
54.291214
 30
0.0
 40
0.666663
  1
NOTES:
 41
0.8
  7
MASTER
  0
TEXT
  5
252D
  8
NOTES
 10
21.934608
 20
52.930345
 30
0.0
 40
0.666663
  1
 MATERIAL: #14GA (.074) STEEL
 41
0.8
  7
MASTER
  0
TEXT
  5
252E
  8
NOTES
 10
21.934608
 20
51.947536
 30
0.0
 40
0.666663
  1
 FINISH:
 41
0.8
  7
MASTER
  0
TEXT
  5
2530
  8
NOTES
 10
21.934608
 20
50.958894
 30
0.0
 40
0.666663
  1
  PRODUCT CODE - 312E
 41
0.8
  7
MASTER
  0
TEXT
  5
2531
  8
NOTES
 10
21.934608
 20
49.901983
 30
0.0
 40
0.666663
  1
  COLOR - PEBBLE GRAY (BEIGE)
 41
0.8
  7
MASTER
  0
TEXT
  5
2532
  8
NOTES
 10
21.934608
 20
48.919174
 30
0.0
 40
0.666663
  1
  POWDER TYPE - POLYESTER
 41
0.8
  7
MASTER
  0
TEXT
  5
253E
  8
NOTES
 10
68.888914
 20
47.115036
 30
0.0
 40
0.666663
  1
 CHANNEL - 14GA (.0747) STEEL
 41
0.8
  7
MASTER
  0
TEXT
  5
253F
  8
NOTES
 10
69.234702
 20
45.637196
 30
0.0
 40
0.666663
  1
TOTAL ENCLOSURE WEIGHT: 35 LBS
 41
0.8
  7
MASTER
  0
LINE
  5
26A9
  8
0
 10
83.417331
 20
21.933924
 30
0.0
 11
83.417331
 21
18.433924
 31
0.0
  0
LINE
  5
26AA
  8
CENTERLINE
 10
73.167331
 20
22.395406
 30
0.0
 11
73.167331
 21
21.254253
 31
0.0
  0
LINE
  5
26AB
  8
CENTERLINE
 10
79.167331
 20
22.395406
 30
0.0
 11
79.167331
 21
21.254253
 31
0.0
  0
LINE
  5
26AC
  8
CENTERLINE
 10
81.167331
 20
22.395406
 30
0.0
 11
81.167331
 21
21.254253
 31
0.0
  0
LINE
  5
26AD
  8
0
  6
CONTINUOUS
 10
70.920548
 20
21.933924
 30
0.0
 11
70.920548
 21
18.433924
 31
0.0
  0
LINE
  5
26AE
  8
0
  6
CONTINUOUS
 10
70.920548
 20
18.567924
 30
0.0
 11
83.417331
 21
18.567924
 31
0.0
  0
LINE
  5
26AF
  8
0
  6
CONTINUOUS
 10
70.920548
 20
18.433924
 30
0.0
 11
83.417331
 21
18.433924
 31
0.0
  0
LINE
  5
26B0
  8
CENTERLINE
 10
73.167331
 20
19.041231
 30
0.0
 11
73.167331
 21
17.955277
 31
0.0
  0
LINE
  5
26B1
  8
CENTERLINE
 10
81.167331
 20
19.056303
 30
0.0
 11
81.167331
 21
17.911721
 31
0.0
  0
LINE
  5
26B2
  8
CENTERLINE
 10
79.167331
 20
19.056303
 30
0.0
 11
79.167331
 21
17.911721
 31
0.0
  0
LINE
  5
26B5
  8
0
  6
CONTINUOUS
 10
70.920548
 20
21.799924
 30
0.0
 11
83.417331
 21
21.799924
 31
0.0
  0
LINE
  5
26B6
  8
0
  6
CONTINUOUS
 10
70.920548
 20
21.933924
 30
0.0
 11
83.417331
 21
21.933924
 31
0.0
  0
LINE
  5
2852
  8
0
 10
47.266722
 20
21.669924
 30
0.0
 11
47.266722
 21
18.697924
 31
0.0
  0
LINE
  5
2853
  8
0
 10
47.400722
 20
21.669924
 30
0.0
 11
47.400722
 21
18.697924
 31
0.0
  0
LINE
  5
2854
  8
0
 10
47.136722
 20
18.433924
 30
0.0
 11
45.904094
 21
18.433924
 31
0.0
  0
LINE
  5
2855
  8
0
 10
47.136722
 20
18.567924
 30
0.0
 11
45.900722
 21
18.567924
 31
0.0
  0
LINE
  5
2856
  8
0
 10
45.900722
 20
18.567924
 30
0.0
 11
45.904094
 21
18.433924
 31
0.0
  0
LINE
  5
2857
  8
CENTERLINE
 10
46.528722
 20
17.977545
 30
0.0
 11
46.528722
 21
19.057545
 31
0.0
  0
ARC
  5
2858
  8
0
 10
47.136722
 20
18.697924
 30
0.0
 40
0.13
 50
270.0
 51
0.0
  0
ARC
  5
2859
  8
0
 10
47.136722
 20
18.697924
 30
0.0
 40
0.264
 50
270.0
 51
0.0
  0
LINE
  5
285A
  8
0
 10
45.900722
 20
21.933924
 30
0.0
 11
47.136722
 21
21.933924
 31
0.0
  0
LINE
  5
285B
  8
0
 10
45.904094
 20
21.799924
 30
0.0
 11
47.136722
 21
21.799924
 31
0.0
  0
LINE
  5
285C
  8
0
 10
45.900722
 20
21.933924
 30
0.0
 11
45.900722
 21
21.799924
 31
0.0
  0
LINE
  5
285D
  8
0
 10
47.022408
 20
21.799924
 30
0.0
 11
46.022408
 21
21.799924
 31
0.0
  0
ARC
  5
285E
  8
0
 10
47.136722
 20
21.669924
 30
0.0
 40
0.13
 50
0.0
 51
90.0
  0
ARC
  5
285F
  8
0
 10
47.136722
 20
21.669924
 30
0.0
 40
0.264
 50
0.0
 51
90.0
  0
LINE
  5
2860
  8
CENTERLINE
 10
60.028722
 20
17.977545
 30
0.0
 11
60.028722
 21
19.057545
 31
0.0
  0
LINE
  5
2861
  8
0
 10
59.156722
 20
21.669924
 30
0.0
 11
59.156722
 21
18.697924
 31
0.0
  0
LINE
  5
2862
  8
0
 10
59.290722
 20
21.669924
 30
0.0
 11
59.290722
 21
18.697924
 31
0.0
  0
LINE
  5
2863
  8
0
 10
59.420722
 20
18.567924
 30
0.0
 11
60.656722
 21
18.567924
 31
0.0
  0
LINE
  5
2864
  8
0
 10
59.420722
 20
18.433924
 30
0.0
 11
60.653349
 21
18.433924
 31
0.0
  0
LINE
  5
2865
  8
0
 10
60.656722
 20
18.567924
 30
0.0
 11
60.653349
 21
18.433924
 31
0.0
  0
ARC
  5
2866
  8
0
 10
59.420722
 20
18.697924
 30
0.0
 40
0.264
 50
180.0
 51
270.0
  0
ARC
  5
2867
  8
0
 10
59.420722
 20
18.697924
 30
0.0
 40
0.13
 50
180.0
 51
270.0
  0
LINE
  5
2868
  8
0
 10
59.535036
 20
21.799924
 30
0.0
 11
60.535036
 21
21.799924
 31
0.0
  0
LINE
  5
2869
  8
0
 10
60.653349
 20
21.799924
 30
0.0
 11
59.420722
 21
21.799924
 31
0.0
  0
LINE
  5
286A
  8
0
 10
60.656722
 20
21.933924
 30
0.0
 11
59.420722
 21
21.933924
 31
0.0
  0
LINE
  5
286B
  8
0
 10
60.656722
 20
21.933924
 30
0.0
 11
60.656722
 21
21.799924
 31
0.0
  0
ARC
  5
286C
  8
0
 10
59.420722
 20
21.669924
 30
0.0
 40
0.264
 50
90.0
 51
180.0
  0
ARC
  5
286D
  8
0
 10
59.420722
 20
21.669924
 30
0.0
 40
0.13
 50
90.0
 51
180.0
  0
TEXT
  5
2A01
  8
DIMENSION
 10
63.328043
 20
15.081486
 30
0.0
 40
0.666663
  1
.44 DIA.
 41
0.8
  7
MASTER
  0
TEXT
  5
2A02
  8
DIMENSION
 10
63.328043
 20
14.002128
 30
0.0
 40
0.666663
  1
4 MTG. HOLES
 41
0.8
  7
MASTER
  0
TEXT
  5
2A11
  8
NOTES
 10
10.788467
 20
18.269778
 30
0.0
 40
0.833328
  1
COVER
 41
0.8
  7
MASTER
  0
TEXT
  5
2A13
  8
NOTES
 10
52.184218
 20
18.073692
 30
0.0
 40
0.833328
  1
BASE
 41
0.8
  7
MASTER
  0
LINE
  5
2A14
  8
NOTES
 10
10.708553
 20
18.055383
 30
0.0
 11
13.905136
 21
18.055383
 31
0.0
  0
LINE
  5
2A15
  8
NOTES
 10
52.051027
 20
17.90408
 30
0.0
 11
54.714846
 21
17.90408
 31
0.0
  0
TEXT
  5
2A18
  8
NOTES
 10
31.166684
 20
37.538581
 30
0.0
 40
0.666663
  1
VENT SLOTS-TYPICAL
 41
0.8
  7
MASTER
  0
LINE
  5
2A19
  8
CENTERLINE
 10
35.55283
 20
23.098852
 30
0.0
 11
36.27283
 21
23.098852
 31
0.0
  0
LINE
  5
2A1A
  8
CENTERLINE
 10
27.05283
 20
23.098852
 30
0.0
 11
27.77283
 21
23.098852
 31
0.0
  0
LINE
  5
2A1B
  8
CENTERLINE
 10
18.013963
 20
23.098852
 30
0.0
 11
18.733963
 21
23.098852
 31
0.0
  0
LINE
  5
2A1C
  8
CENTERLINE
 10
7.013963
 20
23.098852
 30
0.0
 11
7.733963
 21
23.098852
 31
0.0
  0
LINE
  5
2A1D
  8
NOTES
  6
PHANTOM
 10
70.420548
 20
23.433924
 30
0.0
 11
70.420548
 21
25.740431
 31
0.0
  0
LINE
  5
2A1E
  8
NOTES
  6
PHANTOM
 10
82.412789
 20
33.929705
 30
0.0
 11
70.420548
 21
33.929705
 31
0.0
  0
TEXT
  5
2A24
  8
NOTES
 10
80.397157
 20
36.330764
 30
0.0
 40
0.666663
  1
COVER IN
 41
0.8
  7
MASTER
  0
TEXT
  5
2A25
  8
NOTES
 10
80.397157
 20
35.251406
 30
0.0
 40
0.666663
  1
PLACE
 41
0.8
  7
MASTER
  0
CIRCLE
  5
2B6A
  8
0
 10
73.547331
 20
23.433924
 30
0.0
 40
0.200715
  0
LINE
  5
2B6B
  8
DIMENSION
 10
73.067334
 20
23.433924
 30
0.0
 11
74.027328
 21
23.433924
 31
0.0
  0
LINE
  5
2B6C
  8
DIMENSION
 10
73.547331
 20
22.953927
 30
0.0
 11
73.547331
 21
23.913921
 31
0.0
  0
LINE
  5
2BA4
  8
NOTES
  6
PHANTOM
 10
70.420548
 20
27.64592
 30
0.0
 11
70.420548
 21
33.929705
 31
0.0
  0
TEXT
  5
2BC0
  8
DIMENSION
 10
72.663952
 20
32.086883
 30
0.0
 40
0.666663
  1
LOCATION FOR
 41
0.8
  7
MASTER
  0
TEXT
  5
2BC1
  8
DIMENSION
 10
72.663952
 20
31.007524
 30
0.0
 40
0.666663
  1
CUSTOMERS
 41
0.8
  7
MASTER
  0
TEXT
  5
2BC2
  8
DIMENSION
 10
72.663952
 20
29.928166
 30
0.0
 40
0.666663
  1
CONDUIT FITTING
 41
0.8
  7
MASTER
  0
TEXT
  5
2BC3
  8
DIMENSION
 10
72.663952
 20
28.848808
 30
0.0
 40
0.666663
  1
(BOTH SIDES)
 41
0.8
  7
MASTER
  0
TEXT
  5
2C9F
  8
NOTES
 10
49.694006
 20
16.719647
 30
0.0
 40
0.833328
  1
TCI P/N 17477
 41
0.8
  7
MASTER
  0
TEXT
  5
2CA0
  8
NOTES
 10
8.458085
 20
16.889501
 30
0.0
 40
0.833328
  1
TCI P/N 17475
 41
0.8
  7
MASTER
  0
TEXT
  5
2CA4
  8
NOTES
 10
48.92846
 20
14.182908
 30
0.0
 40
0.833328
  1
SUPPORT CHANNEL
 41
0.8
  7
MASTER
  0
TEXT
  5
2CA5
  8
NOTES
 10
49.694006
 20
12.734564
 30
0.0
 40
0.833328
  1
TCI P/N 23129
 41
0.8
  7
MASTER
  0
LINE
  5
2CA6
  8
NOTES
 10
48.795269
 20
13.966147
 30
0.0
 11
58.725562
 21
13.966147
 31
0.0
  0
TEXT
  5
2CB0
  8
NOTES
 10
69.158155
 20
48.643956
 30
0.0
 40
0.666663
  1
 -POLYURETHANE
 41
0.8
  7
MASTER
  0
TEXT
  5
2CB1
  8
NOTES
 10
23.106689
 20
47.91919
 30
0.0
 40
0.666663
  1
 -POLYURETHANE
 41
0.8
  7
MASTER
  0
INSERT
  5
2CB5
  8
BORDER
 66
     1
  2
REVISE12
 10
41.333075
 20
3.999975
 30
0.0
 41
5.3333
 42
5.3333
 43
5.3333
  0
ATTRIB
  5
2CB6
  8
0
 10
41.499741
 20
4.333306
 30
0.0
 40
0.666663
  1
A
 41
2.25
 72
     5
 11
42.499734
 21
4.333306
 31
0.0
  2
NO
 70
     8
  0
ATTRIB
  5
2CB7
  8
0
 10
42.999731
 20
4.333306
 30
0.0
 40
0.666663
  1
REDRAWN-NO REVS.
  2
REV
 70
     8
  0
ATTRIB
  5
2CB8
  8
0
 10
56.332981
 20
4.333306
 30
0.0
 40
0.666663
  1
4/4/01
 41
1.016129
 72
     5
 11
59.832959
 21
4.333306
 31
0.0
  2
RDATE
 70
     8
  0
ATTRIB
  5
2CB9
  8
0
 10
60.166291
 20
4.333306
 30
0.0
 40
0.666663
  1
RJC
  2
BY
 70
     8
  0
SEQEND
  5
2CBA
  8
BORDER
  0
INSERT
  5
2CBB
  8
BORDER
 66
     1
  2
REVISE12
 10
41.333075
 20
5.3333
 30
0.0
 41
5.3333
 42
5.3333
 43
5.3333
  0
ATTRIB
  5
2CBC
  8
0
 10
41.499741
 20
5.666631
 30
0.0
 40
0.666663
  1

 41
0.9
 72
     5
 11
42.499734
 21
5.666631
 31
0.0
  2
NO
 70
     8
  0
ATTRIB
  5
2CBD
  8
0
 10
42.999731
 20
5.666631
 30
0.0
 40
0.666663
  1

  2
REV
 70
     8
  0
ATTRIB
  5
2CBE
  8
0
 10
56.332981
 20
5.666631
 30
0.0
 40
0.666663
  1

 41
1.125
 72
     5
 11
59.832959
 21
5.666631
 31
0.0
  2
RDATE
 70
     8
  0
ATTRIB
  5
2CBF
  8
0
 10
60.166291
 20
5.666631
 30
0.0
 40
0.666663
  1

  2
BY
 70
     8
  0
SEQEND
  5
2CC0
  8
BORDER
  0
INSERT
  5
2CC1
  8
BORDER
 66
     1
  2
REVISE12
 10
41.333075
 20
6.666625
 30
0.0
 41
5.3333
 42
5.3333
 43
5.3333
  0
ATTRIB
  5
2CC2
  8
0
 10
41.499741
 20
6.999956
 30
0.0
 40
0.666663
  1

 41
0.9
 72
     5
 11
42.499734
 21
6.999956
 31
0.0
  2
NO
 70
     8
  0
ATTRIB
  5
2CC3
  8
0
 10
42.999731
 20
6.999956
 30
0.0
 40
0.666663
  1

  2
REV
 70
     8
  0
ATTRIB
  5
2CC4
  8
0
 10
56.332981
 20
6.999956
 30
0.0
 40
0.666663
  1

 41
1.125
 72
     5
 11
59.832959
 21
6.999956
 31
0.0
  2
RDATE
 70
     8
  0
ATTRIB
  5
2CC5
  8
0
 10
60.166291
 20
6.999956
 30
0.0
 40
0.666663
  1

  2
BY
 70
     8
  0
SEQEND
  5
2CC6
  8
BORDER
  0
INSERT
  5
2CC7
  8
BORDER
 66
     1
  2
REVISE12
 10
41.333075
 20
7.99995
 30
0.0
 41
5.3333
 42
5.3333
 43
5.3333
  0
ATTRIB
  5
2CC8
  8
0
 10
41.499741
 20
8.333281
 30
0.0
 40
0.666663
  1

 41
0.9
 72
     5
 11
42.499734
 21
8.333281
 31
0.0
  2
NO
 70
     8
  0
ATTRIB
  5
2CC9
  8
0
 10
42.999731
 20
8.333281
 30
0.0
 40
0.666663
  1

  2
REV
 70
     8
  0
ATTRIB
  5
2CCA
  8
0
 10
56.332981
 20
8.333281
 30
0.0
 40
0.666663
  1

 41
1.125
 72
     5
 11
59.832959
 21
8.333281
 31
0.0
  2
RDATE
 70
     8
  0
ATTRIB
  5
2CCB
  8
0
 10
60.166291
 20
8.333281
 30
0.0
 40
0.666663
  1

  2
BY
 70
     8
  0
SEQEND
  5
2CCC
  8
BORDER
  0
INSERT
  5
2CCD
  8
BORDER
 66
     1
  2
REVISE12
 10
41.333075
 20
9.333275
 30
0.0
 41
5.3333
 42
5.3333
 43
5.3333
  0
ATTRIB
  5
2CCE
  8
0
 10
41.499741
 20
9.666606
 30
0.0
 40
0.666663
  1

 41
0.9
 72
     5
 11
42.499734
 21
9.666606
 31
0.0
  2
NO
 70
     8
  0
ATTRIB
  5
2CCF
  8
0
 10
42.999731
 20
9.666606
 30
0.0
 40
0.666663
  1

  2
REV
 70
     8
  0
ATTRIB
  5
2CD0
  8
0
 10
56.332981
 20
9.666606
 30
0.0
 40
0.666663
  1

 41
1.125
 72
     5
 11
59.832959
 21
9.666606
 31
0.0
  2
RDATE
 70
     8
  0
ATTRIB
  5
2CD1
  8
0
 10
60.166291
 20
9.666606
 30
0.0
 40
0.666663
  1

  2
BY
 70
     8
  0
SEQEND
  5
2CD2
  8
BORDER
  0
INSERT
  5
2CD3
  8
BORDER
 66
     1
  2
REVISE12
 10
41.333075
 20
10.6666
 30
0.0
 41
5.3333
 42
5.3333
 43
5.3333
  0
ATTRIB
  5
2CD4
  8
0
 10
41.499741
 20
10.999931
 30
0.0
 40
0.666663
  1

 41
0.9
 72
     5
 11
42.499734
 21
10.999931
 31
0.0
  2
NO
 70
     8
  0
ATTRIB
  5
2CD5
  8
0
 10
42.999731
 20
10.999931
 30
0.0
 40
0.666663
  1

  2
REV
 70
     8
  0
ATTRIB
  5
2CD6
  8
0
 10
56.332981
 20
10.999931
 30
0.0
 40
0.666663
  1

 41
1.125
 72
     5
 11
59.832959
 21
10.999931
 31
0.0
  2
RDATE
 70
     8
  0
ATTRIB
  5
2CD7
  8
0
 10
60.166291
 20
10.999931
 30
0.0
 40
0.666663
  1

  2
BY
 70
     8
  0
SEQEND
  5
2CD8
  8
BORDER
  0
TEXT
  5
2CDE
  8
DIMENSION
 10
67.10339
 20
38.236487
 30
0.0
 40
0.666663
  1
KEYSLOTS FOR
 41
0.8
  7
MASTER
  0
TEXT
  5
2CDF
  8
DIMENSION
 10
67.10339
 20
37.157129
 30
0.0
 40
0.666663
  1
1/4-20 SCREWS
 41
0.8
  7
MASTER
  0
TEXT
  5
2CE0
  8
DIMENSION
 10
67.10339
 20
36.07777
 30
0.0
 40
0.666663
  1
2 PLACES
 41
0.8
  7
MASTER
  0
TEXT
  5
2D14
  8
DIMENSION
 10
47.578324
 20
54.602377
 30
0.0
 40
0.666663
  1
.44 DIA. (4) HOLES
 41
0.8
  7
MASTER
  0
TEXT
  5
2D15
  8
DIMENSION
 10
47.690098
 20
53.523019
 30
0.0
 40
0.666663
  1
MARKED "A"
 41
0.8
  7
MASTER
  0
TEXT
  5
2D44
  8
DIMENSION
 10
49.972764
 20
20.649755
 30
0.0
 40
0.666663
  1
.328 DIA.
 41
0.8
  7
MASTER
  0
TEXT
  5
2D45
  8
DIMENSION
 10
49.972764
 20
19.570396
 30
0.0
 40
0.666663
  1
2 HOLES
 41
0.8
  7
MASTER
  0
SOLID
  5
2D52
  8
NOTES
 10
77.781336
 20
34.787892
 30
0.0
 11
77.358179
 21
33.911464
 31
0.0
 12
77.474216
 22
34.877758
 32
0.0
 13
77.474216
 23
34.877758
 33
0.0
1001
ACAD
1000
DSTYLE
1002
{
1070
   271
1070
     2
1002
}
  0
LINE
  5
2D54
  8
0
  6
BYBLOCK
 62
     0
 10
47.031101
 20
32.768036
 30
0.0
 11
47.031101
 21
36.128354
 31
0.0
  0
LINE
  5
2D55
  8
0
  6
BYBLOCK
 62
     0
 10
59.528134
 20
32.768036
 30
0.0
 11
59.528134
 21
36.128354
 31
0.0
  0
LINE
  5
2D56
  8
0
  6
BYBLOCK
 62
     0
 10
47.991095
 20
35.16836
 30
0.0
 11
51.632961
 21
35.16836
 31
0.0
  0
LINE
  5
2D57
  8
0
  6
BYBLOCK
 62
     0
 10
58.56814
 20
35.16836
 30
0.0
 11
54.926274
 21
35.16836
 31
0.0
  0
SOLID
  5
2D58
  8
0
  6
BYBLOCK
 62
     0
 10
47.991095
 20
35.328359
 30
0.0
 11
47.991095
 21
35.008361
 31
0.0
 12
47.031101
 22
35.16836
 32
0.0
 13
47.031101
 23
35.16836
 33
0.0
  0
SOLID
  5
2D59
  8
0
  6
BYBLOCK
 62
     0
 10
58.56814
 20
35.328359
 30
0.0
 11
58.56814
 21
35.008361
 31
0.0
 12
59.528134
 22
35.16836
 32
0.0
 13
59.528134
 23
35.16836
 33
0.0
  0
POINT
  5
2D5B
  8
DEFPOINTS
  6
BYBLOCK
 62
     0
 10
47.031101
 20
32.434705
 30
0.0
  0
POINT
  5
2D5C
  8
DEFPOINTS
  6
BYBLOCK
 62
     0
 10
59.528134
 20
32.434705
 30
0.0
  0
POINT
  5
2D5D
  8
DEFPOINTS
  6
BYBLOCK
 62
     0
 10
59.528134
 20
35.16836
 30
0.0
  0
LINE
  5
2D5E
  8
0
  6
BYBLOCK
 62
     0
 10
60.778722
 20
39.371254
 30
0.0
 11
60.778722
 21
35.704883
 31
0.0
  0
LINE
  5
2D5F
  8
0
  6
BYBLOCK
 62
     0
 10
45.780513
 20
39.371254
 30
0.0
 11
45.780513
 21
35.704883
 31
0.0
  0
LINE
  5
2D60
  8
0
  6
BYBLOCK
 62
     0
 10
59.818728
 20
36.664877
 30
0.0
 11
54.870719
 21
36.664877
 31
0.0
  0
LINE
  5
2D61
  8
0
  6
BYBLOCK
 62
     0
 10
46.740507
 20
36.664877
 30
0.0
 11
51.688516
 21
36.664877
 31
0.0
  0
SOLID
  5
2D62
  8
0
  6
BYBLOCK
 62
     0
 10
59.818728
 20
36.824876
 30
0.0
 11
59.818728
 21
36.504878
 31
0.0
 12
60.778722
 22
36.664877
 32
0.0
 13
60.778722
 23
36.664877
 33
0.0
  0
SOLID
  5
2D63
  8
0
  6
BYBLOCK
 62
     0
 10
46.740507
 20
36.824876
 30
0.0
 11
46.740507
 21
36.504878
 31
0.0
 12
45.780513
 22
36.664877
 32
0.0
 13
45.780513
 23
36.664877
 33
0.0
  0
POINT
  5
2D65
  8
DEFPOINTS
  6
BYBLOCK
 62
     0
 10
60.778722
 20
39.704586
 30
0.0
  0
POINT
  5
2D66
  8
DEFPOINTS
  6
BYBLOCK
 62
     0
 10
45.780513
 20
39.704586
 30
0.0
  0
POINT
  5
2D67
  8
DEFPOINTS
  6
BYBLOCK
 62
     0
 10
45.780513
 20
36.664877
 30
0.0
  0
LINE
  5
2D68
  8
0
  6
BYBLOCK
 62
     0
 10
46.528722
 20
42.125664
 30
0.0
 11
46.528722
 21
37.184719
 31
0.0
  0
LINE
  5
2D69
  8
0
  6
BYBLOCK
 62
     0
 10
60.028722
 20
42.125664
 30
0.0
 11
60.028722
 21
37.184719
 31
0.0
  0
LINE
  5
2D6A
  8
0
  6
BYBLOCK
 62
     0
 10
47.488716
 20
38.144713
 30
0.0
 11
51.632065
 21
38.144713
 31
0.0
  0
LINE
  5
2D6B
  8
0
  6
BYBLOCK
 62
     0
 10
59.068728
 20
38.144713
 30
0.0
 11
54.925378
 21
38.144713
 31
0.0
  0
SOLID
  5
2D6C
  8
0
  6
BYBLOCK
 62
     0
 10
47.488716
 20
38.304712
 30
0.0
 11
47.488716
 21
37.984714
 31
0.0
 12
46.528722
 22
38.144713
 32
0.0
 13
46.528722
 23
38.144713
 33
0.0
  0
SOLID
  5
2D6D
  8
0
  6
BYBLOCK
 62
     0
 10
59.068728
 20
38.304712
 30
0.0
 11
59.068728
 21
37.984714
 31
0.0
 12
60.028722
 22
38.144713
 32
0.0
 13
60.028722
 23
38.144713
 33
0.0
  0
POINT
  5
2D6F
  8
DEFPOINTS
  6
BYBLOCK
 62
     0
 10
46.528722
 20
42.458996
 30
0.0
  0
POINT
  5
2D70
  8
DEFPOINTS
  6
BYBLOCK
 62
     0
 10
60.028722
 20
42.458996
 30
0.0
  0
POINT
  5
2D71
  8
DEFPOINTS
  6
BYBLOCK
 62
     0
 10
60.028722
 20
38.144713
 30
0.0
  0
SOLID
  5
2D72
  8
DIMENSION
 10
60.226018
 20
33.325265
 30
0.0
 11
59.567927
 21
32.608254
 31
0.0
 12
59.957901
 22
33.499942
 32
0.0
 13
59.957901
 23
33.499942
 33
0.0
1001
ACAD
1000
DSTYLE
1002
{
1070
   271
1070
     2
1002
}
  0
LINE
  5
2D74
  8
0
  6
BYBLOCK
 62
     0
 10
59.861465
 20
32.434705
 30
0.0
 11
63.104145
 21
32.434705
 31
0.0
  0
LINE
  5
2D75
  8
0
  6
BYBLOCK
 62
     0
 10
60.952053
 20
33.929705
 30
0.0
 11
63.104145
 21
33.929705
 31
0.0
  0
LINE
  5
2D76
  8
0
  6
BYBLOCK
 62
     0
 10
62.144151
 20
31.474711
 30
0.0
 11
62.144151
 21
30.514717
 31
0.0
  0
LINE
  5
2D77
  8
0
  6
BYBLOCK
 62
     0
 10
62.144151
 20
34.889699
 30
0.0
 11
62.144151
 21
35.849693
 31
0.0
  0
LINE
  5
2D78
  8
0
  6
BYBLOCK
 62
     0
 10
62.144151
 20
35.849693
 30
0.0
 11
63.104145
 21
35.849693
 31
0.0
  0
SOLID
  5
2D79
  8
0
  6
BYBLOCK
 62
     0
 10
61.984152
 20
31.474711
 30
0.0
 11
62.30415
 21
31.474711
 31
0.0
 12
62.144151
 22
32.434705
 32
0.0
 13
62.144151
 23
32.434705
 33
0.0
  0
SOLID
  5
2D7A
  8
0
  6
BYBLOCK
 62
     0
 10
61.984152
 20
34.889699
 30
0.0
 11
62.30415
 21
34.889699
 31
0.0
 12
62.144151
 22
33.929705
 32
0.0
 13
62.144151
 23
33.929705
 33
0.0
  0
POINT
  5
2D7C
  8
DEFPOINTS
  6
BYBLOCK
 62
     0
 10
59.528134
 20
32.434705
 30
0.0
  0
POINT
  5
2D7D
  8
DEFPOINTS
  6
BYBLOCK
 62
     0
 10
60.618722
 20
33.929705
 30
0.0
  0
POINT
  5
2D7E
  8
DEFPOINTS
  6
BYBLOCK
 62
     0
 10
62.144151
 20
33.929705
 30
0.0
  0
LINE
  5
2D7F
  8
0
  6
BYBLOCK
 62
     0
 10
61.112053
 20
52.708996
 30
0.0
 11
66.380443
 21
52.708996
 31
0.0
  0
LINE
  5
2D80
  8
0
  6
BYBLOCK
 62
     0
 10
61.112053
 20
39.704586
 30
0.0
 11
66.380443
 21
39.704586
 31
0.0
  0
LINE
  5
2D81
  8
0
  6
BYBLOCK
 62
     0
 10
65.420449
 20
51.749002
 30
0.0
 11
65.420449
 21
47.828339
 31
0.0
  0
LINE
  5
2D82
  8
0
  6
BYBLOCK
 62
     0
 10
65.420449
 20
40.66458
 30
0.0
 11
65.420449
 21
46.201682
 31
0.0
  0
SOLID
  5
2D83
  8
0
  6
BYBLOCK
 62
     0
 10
65.26045
 20
51.749002
 30
0.0
 11
65.580448
 21
51.749002
 31
0.0
 12
65.420449
 22
52.708996
 32
0.0
 13
65.420449
 23
52.708996
 33
0.0
  0
SOLID
  5
2D84
  8
0
  6
BYBLOCK
 62
     0
 10
65.26045
 20
40.66458
 30
0.0
 11
65.580448
 21
40.66458
 31
0.0
 12
65.420449
 22
39.704586
 32
0.0
 13
65.420449
 23
39.704586
 33
0.0
  0
POINT
  5
2D86
  8
DEFPOINTS
  6
BYBLOCK
 62
     0
 10
60.778722
 20
52.708996
 30
0.0
  0
POINT
  5
2D87
  8
DEFPOINTS
  6
BYBLOCK
 62
     0
 10
60.778722
 20
39.704586
 30
0.0
  0
POINT
  5
2D88
  8
DEFPOINTS
  6
BYBLOCK
 62
     0
 10
65.420449
 20
39.704586
 30
0.0
  0
LINE
  5
2D89
  8
0
  6
BYBLOCK
 62
     0
 10
60.36213
 20
48.458996
 30
0.0
 11
64.310438
 21
48.458996
 31
0.0
  0
LINE
  5
2D8A
  8
0
  6
BYBLOCK
 62
     0
 10
60.362053
 20
42.458996
 30
0.0
 11
64.310438
 21
42.458996
 31
0.0
  0
LINE
  5
2D8B
  8
0
  6
BYBLOCK
 62
     0
 10
63.350444
 20
47.499002
 30
0.0
 11
63.350444
 21
46.272324
 31
0.0
  0
LINE
  5
2D8C
  8
0
  6
BYBLOCK
 62
     0
 10
63.350444
 20
43.41899
 30
0.0
 11
63.350444
 21
44.645667
 31
0.0
  0
SOLID
  5
2D8D
  8
0
  6
BYBLOCK
 62
     0
 10
63.190445
 20
47.499002
 30
0.0
 11
63.510443
 21
47.499002
 31
0.0
 12
63.350444
 22
48.458996
 32
0.0
 13
63.350444
 23
48.458996
 33
0.0
  0
SOLID
  5
2D8E
  8
0
  6
BYBLOCK
 62
     0
 10
63.190445
 20
43.41899
 30
0.0
 11
63.510443
 21
43.41899
 31
0.0
 12
63.350444
 22
42.458996
 32
0.0
 13
63.350444
 23
42.458996
 33
0.0
  0
POINT
  5
2D90
  8
DEFPOINTS
  6
BYBLOCK
 62
     0
 10
60.028799
 20
48.458996
 30
0.0
  0
POINT
  5
2D91
  8
DEFPOINTS
  6
BYBLOCK
 62
     0
 10
60.028722
 20
42.458996
 30
0.0
  0
POINT
  5
2D92
  8
DEFPOINTS
  6
BYBLOCK
 62
     0
 10
63.350444
 20
42.458996
 30
0.0
  0
LINE
  5
2D93
  8
0
  6
BYBLOCK
 62
     0
 10
60.36213
 20
48.458996
 30
0.0
 11
64.24561
 21
48.458996
 31
0.0
  0
LINE
  5
2D94
  8
0
  6
BYBLOCK
 62
     0
 10
61.112053
 20
52.708996
 30
0.0
 11
64.24561
 21
52.708996
 31
0.0
  0
LINE
  5
2D95
  8
0
  6
BYBLOCK
 62
     0
 10
63.285616
 20
49.41899
 30
0.0
 11
63.285616
 21
51.749002
 31
0.0
  0
LINE
  5
2D96
  8
0
  6
BYBLOCK
 62
     0
 10
63.285616
 20
52.708996
 30
0.0
 11
63.285616
 21
54.558032
 31
0.0
  0
LINE
  5
2D97
  8
0
  6
BYBLOCK
 62
     0
 10
63.285616
 20
54.558032
 30
0.0
 11
64.24561
 21
54.558032
 31
0.0
  0
SOLID
  5
2D98
  8
0
  6
BYBLOCK
 62
     0
 10
63.125617
 20
49.41899
 30
0.0
 11
63.445615
 21
49.41899
 31
0.0
 12
63.285616
 22
48.458996
 32
0.0
 13
63.285616
 23
48.458996
 33
0.0
  0
SOLID
  5
2D99
  8
0
  6
BYBLOCK
 62
     0
 10
63.125617
 20
51.749002
 30
0.0
 11
63.445615
 21
51.749002
 31
0.0
 12
63.285616
 22
52.708996
 32
0.0
 13
63.285616
 23
52.708996
 33
0.0
  0
POINT
  5
2D9B
  8
DEFPOINTS
  6
BYBLOCK
 62
     0
 10
60.028799
 20
48.458996
 30
0.0
  0
POINT
  5
2D9C
  8
DEFPOINTS
  6
BYBLOCK
 62
     0
 10
60.778722
 20
52.708996
 30
0.0
  0
POINT
  5
2D9D
  8
DEFPOINTS
  6
BYBLOCK
 62
     0
 10
63.285616
 20
52.708996
 30
0.0
  0
SOLID
  5
2D9E
  8
DIMENSION
 10
59.284267
 20
50.013273
 30
0.0
 11
59.538147
 21
49.073735
 31
0.0
 12
58.993275
 22
49.880148
 32
0.0
 13
58.993275
 23
49.880148
 33
0.0
1001
ACAD
1000
DSTYLE
1002
{
1070
   271
1070
     2
1002
}
  0
LINE
  5
2DA0
  8
0
  6
BYBLOCK
 62
     0
 10
59.861465
 20
32.434705
 30
0.0
 11
63.104596
 21
32.434705
 31
0.0
  0
LINE
  5
2DA1
  8
0
  6
BYBLOCK
 62
     0
 10
59.861465
 20
24.434705
 30
0.0
 11
63.104596
 21
24.434705
 31
0.0
  0
LINE
  5
2DA2
  8
0
  6
BYBLOCK
 62
     0
 10
62.144602
 20
31.474711
 30
0.0
 11
62.144602
 21
29.248033
 31
0.0
  0
LINE
  5
2DA3
  8
0
  6
BYBLOCK
 62
     0
 10
62.144602
 20
25.394699
 30
0.0
 11
62.144602
 21
27.621376
 31
0.0
  0
SOLID
  5
2DA4
  8
0
  6
BYBLOCK
 62
     0
 10
61.984603
 20
31.474711
 30
0.0
 11
62.304601
 21
31.474711
 31
0.0
 12
62.144602
 22
32.434705
 32
0.0
 13
62.144602
 23
32.434705
 33
0.0
  0
SOLID
  5
2DA5
  8
0
  6
BYBLOCK
 62
     0
 10
61.984603
 20
25.394699
 30
0.0
 11
62.304601
 21
25.394699
 31
0.0
 12
62.144602
 22
24.434705
 32
0.0
 13
62.144602
 23
24.434705
 33
0.0
  0
POINT
  5
2DA7
  8
DEFPOINTS
  6
BYBLOCK
 62
     0
 10
59.528134
 20
32.434705
 30
0.0
  0
POINT
  5
2DA8
  8
DEFPOINTS
  6
BYBLOCK
 62
     0
 10
59.528134
 20
24.434705
 30
0.0
  0
POINT
  5
2DA9
  8
DEFPOINTS
  6
BYBLOCK
 62
     0
 10
62.144602
 20
24.434705
 30
0.0
  0
LINE
  5
2DAA
  8
0
  6
BYBLOCK
 62
     0
 10
60.952053
 20
33.929705
 30
0.0
 11
66.847656
 21
33.929705
 31
0.0
  0
LINE
  5
2DAB
  8
0
  6
BYBLOCK
 62
     0
 10
60.986681
 20
18.433924
 30
0.0
 11
66.847656
 21
18.433924
 31
0.0
  0
LINE
  5
2DAC
  8
0
  6
BYBLOCK
 62
     0
 10
65.887662
 20
32.969711
 30
0.0
 11
65.887662
 21
26.995142
 31
0.0
  0
LINE
  5
2DAD
  8
0
  6
BYBLOCK
 62
     0
 10
65.887662
 20
19.393918
 30
0.0
 11
65.887662
 21
25.368486
 31
0.0
  0
SOLID
  5
2DAE
  8
0
  6
BYBLOCK
 62
     0
 10
65.727663
 20
32.969711
 30
0.0
 11
66.047661
 21
32.969711
 31
0.0
 12
65.887662
 22
33.929705
 32
0.0
 13
65.887662
 23
33.929705
 33
0.0
  0
SOLID
  5
2DAF
  8
0
  6
BYBLOCK
 62
     0
 10
65.727663
 20
19.393918
 30
0.0
 11
66.047661
 21
19.393918
 31
0.0
 12
65.887662
 22
18.433924
 32
0.0
 13
65.887662
 23
18.433924
 33
0.0
  0
POINT
  5
2DB1
  8
DEFPOINTS
  6
BYBLOCK
 62
     0
 10
60.618722
 20
33.929705
 30
0.0
  0
POINT
  5
2DB2
  8
DEFPOINTS
  6
BYBLOCK
 62
     0
 10
60.653349
 20
18.433924
 30
0.0
  0
POINT
  5
2DB3
  8
DEFPOINTS
  6
BYBLOCK
 62
     0
 10
65.887662
 20
18.433924
 30
0.0
  0
LINE
  5
2DB4
  8
0
  6
BYBLOCK
 62
     0
 10
60.952053
 20
33.929705
 30
0.0
 11
65.204784
 21
33.929705
 31
0.0
  0
LINE
  5
2DB5
  8
0
  6
BYBLOCK
 62
     0
 10
60.952053
 20
21.933781
 30
0.0
 11
65.204784
 21
21.933781
 31
0.0
  0
LINE
  5
2DB6
  8
0
  6
BYBLOCK
 62
     0
 10
64.24479
 20
32.969711
 30
0.0
 11
64.24479
 21
28.745071
 31
0.0
  0
LINE
  5
2DB7
  8
0
  6
BYBLOCK
 62
     0
 10
64.24479
 20
22.893775
 30
0.0
 11
64.24479
 21
27.118414
 31
0.0
  0
SOLID
  5
2DB8
  8
0
  6
BYBLOCK
 62
     0
 10
64.084791
 20
32.969711
 30
0.0
 11
64.404789
 21
32.969711
 31
0.0
 12
64.24479
 22
33.929705
 32
0.0
 13
64.24479
 23
33.929705
 33
0.0
  0
SOLID
  5
2DB9
  8
0
  6
BYBLOCK
 62
     0
 10
64.084791
 20
22.893775
 30
0.0
 11
64.404789
 21
22.893775
 31
0.0
 12
64.24479
 22
21.933781
 32
0.0
 13
64.24479
 23
21.933781
 33
0.0
  0
POINT
  5
2DBB
  8
DEFPOINTS
  6
BYBLOCK
 62
     0
 10
60.618722
 20
33.929705
 30
0.0
  0
POINT
  5
2DBC
  8
DEFPOINTS
  6
BYBLOCK
 62
     0
 10
60.618722
 20
21.933781
 30
0.0
  0
POINT
  5
2DBD
  8
DEFPOINTS
  6
BYBLOCK
 62
     0
 10
64.24479
 20
21.933781
 30
0.0
  0
LINE
  5
2DBE
  8
0
  6
BYBLOCK
 62
     0
 10
70.420548
 20
21.730592
 30
0.0
 11
70.420548
 21
12.748378
 31
0.0
  0
LINE
  5
2DBF
  8
0
  6
BYBLOCK
 62
     0
 10
83.417331
 20
18.100592
 30
0.0
 11
83.417331
 21
12.748378
 31
0.0
  0
LINE
  5
2DC0
  8
0
  6
BYBLOCK
 62
     0
 10
71.380542
 20
13.708372
 30
0.0
 11
75.327838
 21
13.708372
 31
0.0
  0
LINE
  5
2DC1
  8
0
  6
BYBLOCK
 62
     0
 10
82.457337
 20
13.708372
 30
0.0
 11
78.51004
 21
13.708372
 31
0.0
  0
SOLID
  5
2DC2
  8
0
  6
BYBLOCK
 62
     0
 10
71.380542
 20
13.868371
 30
0.0
 11
71.380542
 21
13.548373
 31
0.0
 12
70.420548
 22
13.708372
 32
0.0
 13
70.420548
 23
13.708372
 33
0.0
  0
SOLID
  5
2DC3
  8
0
  6
BYBLOCK
 62
     0
 10
82.457337
 20
13.868371
 30
0.0
 11
82.457337
 21
13.548373
 31
0.0
 12
83.417331
 22
13.708372
 32
0.0
 13
83.417331
 23
13.708372
 33
0.0
  0
POINT
  5
2DC5
  8
DEFPOINTS
  6
BYBLOCK
 62
     0
 10
70.420548
 20
22.063924
 30
0.0
  0
POINT
  5
2DC6
  8
DEFPOINTS
  6
BYBLOCK
 62
     0
 10
83.417331
 20
18.433924
 30
0.0
  0
POINT
  5
2DC7
  8
DEFPOINTS
  6
BYBLOCK
 62
     0
 10
83.417331
 20
13.708372
 30
0.0
  0
LINE
  5
2DC8
  8
0
  6
BYBLOCK
 62
     0
 10
70.920548
 20
18.100592
 30
0.0
 11
70.920548
 21
14.191745
 31
0.0
  0
LINE
  5
2DC9
  8
0
  6
BYBLOCK
 62
     0
 10
83.417331
 20
18.100592
 30
0.0
 11
83.417331
 21
14.191745
 31
0.0
  0
LINE
  5
2DCA
  8
0
  6
BYBLOCK
 62
     0
 10
71.880542
 20
15.151739
 30
0.0
 11
75.522283
 21
15.151739
 31
0.0
  0
LINE
  5
2DCB
  8
0
  6
BYBLOCK
 62
     0
 10
82.457337
 20
15.151739
 30
0.0
 11
78.815596
 21
15.151739
 31
0.0
  0
SOLID
  5
2DCC
  8
0
  6
BYBLOCK
 62
     0
 10
71.880542
 20
15.311738
 30
0.0
 11
71.880542
 21
14.99174
 31
0.0
 12
70.920548
 22
15.151739
 32
0.0
 13
70.920548
 23
15.151739
 33
0.0
  0
SOLID
  5
2DCD
  8
0
  6
BYBLOCK
 62
     0
 10
82.457337
 20
15.311738
 30
0.0
 11
82.457337
 21
14.99174
 31
0.0
 12
83.417331
 22
15.151739
 32
0.0
 13
83.417331
 23
15.151739
 33
0.0
  0
POINT
  5
2DCF
  8
DEFPOINTS
  6
BYBLOCK
 62
     0
 10
70.920548
 20
18.433924
 30
0.0
  0
POINT
  5
2DD0
  8
DEFPOINTS
  6
BYBLOCK
 62
     0
 10
83.417331
 20
18.433924
 30
0.0
  0
POINT
  5
2DD1
  8
DEFPOINTS
  6
BYBLOCK
 62
     0
 10
83.417331
 20
15.151739
 30
0.0
  0
LINE
  5
2DD2
  8
0
  6
BYBLOCK
 62
     0
 10
73.167331
 20
18.138852
 30
0.0
 11
73.167331
 21
15.65619
 31
0.0
  0
LINE
  5
2DD3
  8
0
  6
BYBLOCK
 62
     0
 10
79.167331
 20
18.138852
 30
0.0
 11
79.167331
 21
15.65619
 31
0.0
  0
LINE
  5
2DD4
  8
0
  6
BYBLOCK
 62
     0
 10
74.127325
 20
16.616184
 30
0.0
 11
74.79845
 21
16.616184
 31
0.0
  0
LINE
  5
2DD5
  8
0
  6
BYBLOCK
 62
     0
 10
78.207337
 20
16.616184
 30
0.0
 11
77.536211
 21
16.616184
 31
0.0
  0
SOLID
  5
2DD6
  8
0
  6
BYBLOCK
 62
     0
 10
74.127325
 20
16.776183
 30
0.0
 11
74.127325
 21
16.456185
 31
0.0
 12
73.167331
 22
16.616184
 32
0.0
 13
73.167331
 23
16.616184
 33
0.0
  0
SOLID
  5
2DD7
  8
0
  6
BYBLOCK
 62
     0
 10
78.207337
 20
16.776183
 30
0.0
 11
78.207337
 21
16.456185
 31
0.0
 12
79.167331
 22
16.616184
 32
0.0
 13
79.167331
 23
16.616184
 33
0.0
  0
POINT
  5
2DD9
  8
DEFPOINTS
  6
BYBLOCK
 62
     0
 10
73.167331
 20
18.472184
 30
0.0
  0
POINT
  5
2DDA
  8
DEFPOINTS
  6
BYBLOCK
 62
     0
 10
79.167331
 20
18.472184
 30
0.0
  0
POINT
  5
2DDB
  8
DEFPOINTS
  6
BYBLOCK
 62
     0
 10
79.167331
 20
16.616184
 30
0.0
  0
SOLID
  5
2DDC
  8
DIMENSION
 10
72.391761
 20
17.845979
 30
0.0
 11
73.167331
 21
18.433924
 31
0.0
 12
72.624368
 22
17.626223
 32
0.0
 13
72.624368
 23
17.626223
 33
0.0
1001
ACAD
1000
DSTYLE
1002
{
1070
   271
1070
     2
1002
}
  0
LINE
  5
2DDE
  8
0
  6
BYBLOCK
 62
     0
 10
79.167331
 20
18.100592
 30
0.0
 11
79.167331
 21
15.65619
 31
0.0
  0
LINE
  5
2DDF
  8
0
  6
BYBLOCK
 62
     0
 10
83.417331
 20
18.100592
 30
0.0
 11
83.417331
 21
15.65619
 31
0.0
  0
LINE
  5
2DE0
  8
0
  6
BYBLOCK
 62
     0
 10
78.207337
 20
16.616184
 30
0.0
 11
77.247343
 21
16.616184
 31
0.0
  0
LINE
  5
2DE1
  8
0
  6
BYBLOCK
 62
     0
 10
84.377325
 20
16.616184
 30
0.0
 11
85.337319
 21
16.616184
 31
0.0
  0
SOLID
  5
2DE2
  8
0
  6
BYBLOCK
 62
     0
 10
78.207337
 20
16.776183
 30
0.0
 11
78.207337
 21
16.456185
 31
0.0
 12
79.167331
 22
16.616184
 32
0.0
 13
79.167331
 23
16.616184
 33
0.0
  0
SOLID
  5
2DE3
  8
0
  6
BYBLOCK
 62
     0
 10
84.377325
 20
16.776183
 30
0.0
 11
84.377325
 21
16.456185
 31
0.0
 12
83.417331
 22
16.616184
 32
0.0
 13
83.417331
 23
16.616184
 33
0.0
  0
POINT
  5
2DE5
  8
DEFPOINTS
  6
BYBLOCK
 62
     0
 10
79.167331
 20
18.433924
 30
0.0
  0
POINT
  5
2DE6
  8
DEFPOINTS
  6
BYBLOCK
 62
     0
 10
83.417331
 20
18.433924
 30
0.0
  0
POINT
  5
2DE7
  8
DEFPOINTS
  6
BYBLOCK
 62
     0
 10
83.417331
 20
16.616184
 30
0.0
  0
LINE
  5
2DE8
  8
0
  6
BYBLOCK
 62
     0
 10
70.217217
 20
21.933924
 30
0.0
 11
67.290147
 21
21.933924
 31
0.0
  0
LINE
  5
2DE9
  8
0
  6
BYBLOCK
 62
     0
 10
73.213999
 20
23.433924
 30
0.0
 11
67.290147
 21
23.433924
 31
0.0
  0
LINE
  5
2DEA
  8
0
  6
BYBLOCK
 62
     0
 10
68.250141
 20
20.97393
 30
0.0
 11
68.250141
 21
20.013936
 31
0.0
  0
LINE
  5
2DEB
  8
0
  6
BYBLOCK
 62
     0
 10
68.250141
 20
24.393918
 30
0.0
 11
68.250141
 21
26.624238
 31
0.0
  0
LINE
  5
2DEC
  8
0
  6
BYBLOCK
 62
     0
 10
68.250141
 20
26.624238
 30
0.0
 11
69.210135
 21
26.624238
 31
0.0
  0
SOLID
  5
2DED
  8
0
  6
BYBLOCK
 62
     0
 10
68.090142
 20
20.97393
 30
0.0
 11
68.41014
 21
20.97393
 31
0.0
 12
68.250141
 22
21.933924
 32
0.0
 13
68.250141
 23
21.933924
 33
0.0
  0
SOLID
  5
2DEE
  8
0
  6
BYBLOCK
 62
     0
 10
68.090142
 20
24.393918
 30
0.0
 11
68.41014
 21
24.393918
 31
0.0
 12
68.250141
 22
23.433924
 32
0.0
 13
68.250141
 23
23.433924
 33
0.0
  0
POINT
  5
2DF0
  8
DEFPOINTS
  6
BYBLOCK
 62
     0
 10
70.550548
 20
21.933924
 30
0.0
  0
POINT
  5
2DF1
  8
DEFPOINTS
  6
BYBLOCK
 62
     0
 10
73.547331
 20
23.433924
 30
0.0
  0
POINT
  5
2DF2
  8
DEFPOINTS
  6
BYBLOCK
 62
     0
 10
68.250141
 20
23.433924
 30
0.0
  0
LINE
  5
2DF3
  8
0
  6
BYBLOCK
 62
     0
 10
73.547331
 20
23.767255
 30
0.0
 11
73.547331
 21
27.536165
 31
0.0
  0
LINE
  5
2DF4
  8
0
  6
BYBLOCK
 62
     0
 10
83.417331
 20
23.767255
 30
0.0
 11
83.417331
 21
27.536165
 31
0.0
  0
LINE
  5
2DF5
  8
0
  6
BYBLOCK
 62
     0
 10
74.507325
 20
26.576171
 30
0.0
 11
77.00234
 21
26.576171
 31
0.0
  0
LINE
  5
2DF6
  8
0
  6
BYBLOCK
 62
     0
 10
82.457337
 20
26.576171
 30
0.0
 11
79.962321
 21
26.576171
 31
0.0
  0
SOLID
  5
2DF7
  8
0
  6
BYBLOCK
 62
     0
 10
74.507325
 20
26.73617
 30
0.0
 11
74.507325
 21
26.416172
 31
0.0
 12
73.547331
 22
26.576171
 32
0.0
 13
73.547331
 23
26.576171
 33
0.0
  0
SOLID
  5
2DF8
  8
0
  6
BYBLOCK
 62
     0
 10
82.457337
 20
26.73617
 30
0.0
 11
82.457337
 21
26.416172
 31
0.0
 12
83.417331
 22
26.576171
 32
0.0
 13
83.417331
 23
26.576171
 33
0.0
  0
POINT
  5
2DFA
  8
DEFPOINTS
  6
BYBLOCK
 62
     0
 10
73.547331
 20
23.433924
 30
0.0
  0
POINT
  5
2DFB
  8
DEFPOINTS
  6
BYBLOCK
 62
     0
 10
83.417331
 20
23.433924
 30
0.0
  0
POINT
  5
2DFC
  8
DEFPOINTS
  6
BYBLOCK
 62
     0
 10
83.417331
 20
26.576171
 30
0.0
  0
SOLID
  5
2DFD
  8
DIMENSION
 10
73.321616
 20
24.634737
 30
0.0
 11
73.45634
 21
23.670871
 31
0.0
 12
73.016293
 22
24.538942
 32
0.0
 13
73.016293
 23
24.538942
 33
0.0
1001
ACAD
1000
DSTYLE
1002
{
1070
   271
1070
     2
1002
}
  0
SOLID
  5
2DFF
  8
NOTES
 10
29.408734
 20
34.239679
 30
0.0
 11
29.248735
 21
33.279685
 31
0.0
 12
29.088736
 22
34.239679
 32
0.0
 13
29.088736
 23
34.239679
 33
0.0
1001
ACAD
1000
DSTYLE
1002
{
1070
   271
1070
     2
1002
}
  0
LINE
  5
2E01
  8
0
  6
BYBLOCK
 62
     0
 10
29.54283
 20
23.26552
 30
0.0
 11
29.54283
 21
17.051525
 31
0.0
  0
LINE
  5
2E02
  8
0
  6
BYBLOCK
 62
     0
 10
39.416048
 20
21.76552
 30
0.0
 11
39.416048
 21
17.051525
 31
0.0
  0
LINE
  5
2E03
  8
0
  6
BYBLOCK
 62
     0
 10
30.502824
 20
18.011519
 30
0.0
 11
32.999448
 21
18.011519
 31
0.0
  0
LINE
  5
2E04
  8
0
  6
BYBLOCK
 62
     0
 10
38.456054
 20
18.011519
 30
0.0
 11
35.95943
 21
18.011519
 31
0.0
  0
SOLID
  5
2E05
  8
0
  6
BYBLOCK
 62
     0
 10
30.502824
 20
18.171518
 30
0.0
 11
30.502824
 21
17.85152
 31
0.0
 12
29.54283
 22
18.011519
 32
0.0
 13
29.54283
 23
18.011519
 33
0.0
  0
SOLID
  5
2E06
  8
0
  6
BYBLOCK
 62
     0
 10
38.456054
 20
18.171518
 30
0.0
 11
38.456054
 21
17.85152
 31
0.0
 12
39.416048
 22
18.011519
 32
0.0
 13
39.416048
 23
18.011519
 33
0.0
  0
POINT
  5
2E08
  8
DEFPOINTS
  6
BYBLOCK
 62
     0
 10
29.54283
 20
23.598852
 30
0.0
  0
POINT
  5
2E09
  8
DEFPOINTS
  6
BYBLOCK
 62
     0
 10
39.416048
 20
22.098852
 30
0.0
  0
POINT
  5
2E0A
  8
DEFPOINTS
  6
BYBLOCK
 62
     0
 10
39.416048
 20
18.011519
 30
0.0
  0
LINE
  5
2E0B
  8
0
  6
BYBLOCK
 62
     0
 10
31.04283
 20
21.76552
 30
0.0
 11
31.04283
 21
18.991893
 31
0.0
  0
LINE
  5
2E0C
  8
0
  6
BYBLOCK
 62
     0
 10
28.04283
 20
21.76552
 30
0.0
 11
28.04283
 21
18.991893
 31
0.0
  0
LINE
  5
2E0D
  8
0
  6
BYBLOCK
 62
     0
 10
30.082836
 20
19.951887
 30
0.0
 11
29.002824
 21
19.951887
 31
0.0
  0
LINE
  5
2E0E
  8
0
  6
BYBLOCK
 62
     0
 10
28.04283
 20
19.951887
 30
0.0
 11
27.082836
 21
19.951887
 31
0.0
  0
SOLID
  5
2E0F
  8
0
  6
BYBLOCK
 62
     0
 10
30.082836
 20
20.111886
 30
0.0
 11
30.082836
 21
19.791888
 31
0.0
 12
31.04283
 22
19.951887
 32
0.0
 13
31.04283
 23
19.951887
 33
0.0
  0
SOLID
  5
2E10
  8
0
  6
BYBLOCK
 62
     0
 10
29.002824
 20
20.111886
 30
0.0
 11
29.002824
 21
19.791888
 31
0.0
 12
28.04283
 22
19.951887
 32
0.0
 13
28.04283
 23
19.951887
 33
0.0
  0
POINT
  5
2E12
  8
DEFPOINTS
  6
BYBLOCK
 62
     0
 10
31.04283
 20
22.098852
 30
0.0
  0
POINT
  5
2E13
  8
DEFPOINTS
  6
BYBLOCK
 62
     0
 10
28.04283
 20
22.098852
 30
0.0
  0
POINT
  5
2E14
  8
DEFPOINTS
  6
BYBLOCK
 62
     0
 10
28.04283
 20
19.951887
 30
0.0
  0
LINE
  5
2E15
  8
0
  6
BYBLOCK
 62
     0
 10
26.152716
 20
22.098852
 30
0.0
 11
21.805556
 21
22.098852
 31
0.0
  0
LINE
  5
2E16
  8
0
  6
BYBLOCK
 62
     0
 10
29.209499
 20
23.598852
 30
0.0
 11
21.805556
 21
23.598852
 31
0.0
  0
LINE
  5
2E17
  8
0
  6
BYBLOCK
 62
     0
 10
22.76555
 20
21.138858
 30
0.0
 11
22.76555
 21
20.178864
 31
0.0
  0
LINE
  5
2E18
  8
0
  6
BYBLOCK
 62
     0
 10
22.76555
 20
24.558846
 30
0.0
 11
22.76555
 21
25.51884
 31
0.0
  0
LINE
  5
2E19
  8
0
  6
BYBLOCK
 62
     0
 10
22.76555
 20
25.51884
 30
0.0
 11
23.725544
 21
25.51884
 31
0.0
  0
SOLID
  5
2E1A
  8
0
  6
BYBLOCK
 62
     0
 10
22.605551
 20
21.138858
 30
0.0
 11
22.925549
 21
21.138858
 31
0.0
 12
22.76555
 22
22.098852
 32
0.0
 13
22.76555
 23
22.098852
 33
0.0
  0
SOLID
  5
2E1B
  8
0
  6
BYBLOCK
 62
     0
 10
22.605551
 20
24.558846
 30
0.0
 11
22.925549
 21
24.558846
 31
0.0
 12
22.76555
 22
23.598852
 32
0.0
 13
22.76555
 23
23.598852
 33
0.0
  0
POINT
  5
2E1D
  8
DEFPOINTS
  6
BYBLOCK
 62
     0
 10
26.486048
 20
22.098852
 30
0.0
  0
POINT
  5
2E1E
  8
DEFPOINTS
  6
BYBLOCK
 62
     0
 10
29.54283
 20
23.598852
 30
0.0
  0
POINT
  5
2E1F
  8
DEFPOINTS
  6
BYBLOCK
 62
     0
 10
22.76555
 20
23.598852
 30
0.0
  0
SOLID
  5
2E20
  8
DIMENSION
 10
47.229841
 20
23.26645
 30
0.0
 11
47.157141
 21
24.236967
 31
0.0
 12
47.540673
 22
23.342489
 32
0.0
 13
47.540673
 23
23.342489
 33
0.0
1001
ACAD
1000
DSTYLE
1002
{
1070
   271
1070
     2
1002
}
  0
LINE
  5
2E22
  8
NOTES
 10
77.627776
 20
34.832825
 30
0.0
 11
78.159548
 21
36.650182
 31
0.0
1001
ACAD
1000
DSTYLE
1002
{
1070
   271
1070
     2
1002
}
  0
LINE
  5
2E23
  8
NOTES
 10
78.159548
 20
36.650182
 30
0.0
 11
80.077498
 21
36.650182
 31
0.0
1001
ACAD
1000
DSTYLE
1002
{
1070
   271
1070
     2
1002
}
  0
LINE
  5
2E24
  8
DIMENSION
 10
73.168955
 20
24.586839
 30
0.0
 11
70.70439
 21
32.442023
 31
0.0
1001
ACAD
1000
DSTYLE
1002
{
1070
   271
1070
     2
1002
}
  0
LINE
  5
2E25
  8
DIMENSION
 10
70.70439
 20
32.442023
 30
0.0
 11
72.602286
 21
32.442023
 31
0.0
1001
ACAD
1000
DSTYLE
1002
{
1070
   271
1070
     2
1002
}
  0
TEXT
  5
2E26
  8
DIMENSION
 62
     0
 10
77.482337
 20
26.24284
 30
0.0
 40
0.666663
  1
9.87
  0
LINE
  5
2E27
  8
DIMENSION
 10
60.09196
 20
33.412604
 30
0.0
 11
63.424969
 21
38.528519
 31
0.0
1001
ACAD
1000
DSTYLE
1002
{
1070
   271
1070
     2
1002
}
  0
LINE
  5
2E28
  8
DIMENSION
 10
63.424969
 20
38.528519
 30
0.0
 11
66.765087
 21
38.528519
 31
0.0
1001
ACAD
1000
DSTYLE
1002
{
1070
   271
1070
     2
1002
}
  0
TEXT
  5
2E29
  8
DIMENSION
 62
     0
 10
63.584142
 20
35.516361
 30
0.0
 40
0.666663
  1
1.50
  0
TEXT
  5
2E2A
  8
DIMENSION
 62
     0
 10
52.112062
 20
37.811382
 30
0.0
 40
0.666663
  1
13.50
  0
TEXT
  5
2E2B
  8
DIMENSION
 62
     0
 10
52.168513
 20
36.331546
 30
0.0
 40
0.666663
  1
15.00
  0
TEXT
  5
2E2C
  8
DIMENSION
 62
     0
 10
52.112958
 20
34.835029
 30
0.0
 40
0.666663
  1
12.50
  0
TEXT
  5
2E2D
  8
DIMENSION
 62
     0
 10
62.461561
 20
45.125664
 30
0.0
 40
0.666663
  1
6.00
  0
TEXT
  5
2E2E
  8
DIMENSION
 62
     0
 10
64.309345
 20
46.681679
 30
0.0
 40
0.666663
  1
13.00
  0
TEXT
  5
2E2F
  8
DIMENSION
 62
     0
 10
64.725607
 20
54.2247
 30
0.0
 40
0.666663
  1
4.25
  0
LINE
  5
2E30
  8
DIMENSION
 10
59.138771
 20
49.946711
 30
0.0
 11
56.85557
 21
54.937447
 31
0.0
1001
ACAD
1000
DSTYLE
1002
{
1070
   271
1070
     2
1002
}
  0
LINE
  5
2E31
  8
DIMENSION
 10
56.85557
 20
54.937447
 30
0.0
 11
55.73783
 21
54.937447
 31
0.0
1001
ACAD
1000
DSTYLE
1002
{
1070
   271
1070
     2
1002
}
  0
TEXT
  5
2E32
  8
DIMENSION
 62
     0
 10
80.292337
 20
16.282852
 30
0.0
 40
0.666663
  1
4.25
  0
TEXT
  5
2E33
  8
DIMENSION
 62
     0
 10
76.00228
 20
14.818408
 30
0.0
 40
0.666663
  1
12.50
  0
TEXT
  5
2E34
  8
DIMENSION
 62
     0
 10
75.807835
 20
13.37504
 30
0.0
 40
0.666663
  1
13.00
  0
TEXT
  5
2E35
  8
DIMENSION
 62
     0
 10
75.278447
 20
16.282852
 30
0.0
 40
0.666663
  1
6.00
  0
LINE
  5
2E36
  8
DIMENSION
 10
72.508064
 20
17.736101
 30
0.0
 11
70.250412
 21
15.346412
 31
0.0
1001
ACAD
1000
DSTYLE
1002
{
1070
   271
1070
     2
1002
}
  0
LINE
  5
2E37
  8
DIMENSION
 10
70.250412
 20
15.346412
 30
0.0
 11
66.553742
 21
15.346412
 31
0.0
1001
ACAD
1000
DSTYLE
1002
{
1070
   271
1070
     2
1002
}
  0
TEXT
  5
2E38
  8
DIMENSION
 62
     0
 10
69.690132
 20
26.290906
 30
0.0
 40
0.666663
  1
1.50
  0
TEXT
  5
2E39
  8
DIMENSION
 62
     0
 10
64.721002
 20
25.848483
 30
0.0
 40
0.666663
  1
15.50
  0
TEXT
  5
2E3A
  8
DIMENSION
 62
     0
 10
61.255719
 20
28.101373
 30
0.0
 40
0.666663
  1
8.00
  0
TEXT
  5
2E3B
  8
DIMENSION
 62
     0
 10
63.133686
 20
27.598411
 30
0.0
 40
0.666663
  1
12.00
  0
LINE
  5
2E3C
  8
NOTES
 10
29.248735
 20
34.239679
 30
0.0
 11
29.248735
 21
37.964471
 31
0.0
1001
ACAD
1000
DSTYLE
1002
{
1070
   271
1070
     2
1002
}
  0
LINE
  5
2E3D
  8
NOTES
 10
29.248735
 20
37.964471
 30
0.0
 11
30.953579
 21
37.964471
 31
0.0
1001
ACAD
1000
DSTYLE
1002
{
1070
   271
1070
     2
1002
}
  0
TEXT
  5
2E3E
  8
DIMENSION
 62
     0
 10
24.825073
 20
19.618556
 30
0.0
 40
0.666663
  1
3.00
  0
TEXT
  5
2E3F
  8
DIMENSION
 62
     0
 10
33.479445
 20
17.678188
 30
0.0
 40
0.666663
  1
9.87
  0
TEXT
  5
2E40
  8
DIMENSION
 62
     0
 10
24.205541
 20
25.185508
 30
0.0
 40
0.666663
  1
1.50
  0
LINE
  5
2E41
  8
DIMENSION
 10
47.385257
 20
23.304469
 30
0.0
 11
47.931437
 21
21.07178
 31
0.0
1001
ACAD
1000
DSTYLE
1002
{
1070
   271
1070
     2
1002
}
  0
LINE
  5
2E42
  8
DIMENSION
 10
47.931437
 20
21.07178
 30
0.0
 11
50.113545
 21
21.07178
 31
0.0
1001
ACAD
1000
DSTYLE
1002
{
1070
   271
1070
     2
1002
}
  0
ENDSEC
  0
EOF
